Lacuna Coil - Heavens A Lie Chords & Tabs

 

Heavens A Lie Chords & Tabs

Lacuna Coil Chords & Tabs

Version: 1 Type: Bass Tab 0 ratings
1 star 2 stars 3 stars 4 stars 5 stars
comments

Heavens A Lie Bass Tab

   
Lacuna Coil-Heaven's A Lie from the album Comalies
from Century Media Records

Tabbed by: buckethead101

Standard 5-string bass

Intro pt 2 and Chorus

 E5  C5  A5  G5   A5   E5   C5  A5  G5   F#5
|---------------------|---------------------|
|---------------------|---------------------|
|---------0~----------|---------0~----------|
|-0~----------3~--3h5-|-0~----------3~----2-|
|-----1~--------------|-----1~--------------|
Verses
  E5          C5            A5          G5         F#5
|-------------------------|------------------------------|
|-------------------------|------------------------------|
|-------------------------|-0-0-0-0-0--------------------| 
|-0-0-0-0-0---------------|-------------3-3-3-3-3--2-2-2-|
|-------------1-1-1-1-1---|------------------------------|
Pre Chorus and interludes
[ Tab from: http://www.guitartabs.cc/tabs/l/lacuna_coil/heavens_a_lie_btab.html ]
   N.C.
|----------------------------------|-------------------------------|
|----------------------------------|-------------------------------|
|----------------------------------|-------------------------------|
|--2h3-3-3-3--2h3-3-3-3--2-2h3p2-0-|--2h3-3-3-3--2h3-3-3-3---5--5--|
|----------------------------------|-------------------------------|

Post Chorus

|------------------|--------------------|
|------------------|--------------------|
|------------------|--------------------|
|-0~----------3~-2-|-0~----------3~-3p5-| 
|-----1~---3~------|-----1~--3~---------|
Order:

Intro pt 1 (no bass)
Intro pt 2 (4x)
Verses (4x)
Pre Chorus (2x)
Chorus (2x)
Post Chorus (1x)
Verses (4x)
Pre Chorus (2x)
Chorus (2x)
Interlude (4x)
Break for like 2 measures
Chorus (2x)

I don't know if the post chorus because synthesizers and some miscellaneous vocals
dominate the sound.  Sorry too that I'm not a bass player. I am a guitar player. I
have to tab it coz they're the greatest Italian band [for me] I've ever heard of.

Email me for corrections:
cradleoflife212121@yahoo.com
Comments