Lacuna Coil - Halflife Chords & Tabs

 

Halflife Chords & Tabs

Lacuna Coil Chords & Tabs

Version: 1 Type: Bass Tab 0 ratings
1 star 2 stars 3 stars 4 stars 5 stars
comments

Halflife Bass Tab

Intro:
|----------------------------------------|
|----------------------------------------|
|----------------------------------------|
|-----2-------5-3-2----------2-------2---|
|-3-1-----3-1-------3-1--3-1-----3-1-----|

Main Riff:
|---------------------|
|---------------------|
|---------------------| 4x
|------2-3------2-5-3-|
|-3-1-------3-1-------|

Interlude1:
|-------------|
|-------------|
|-------------| 4x
|-------------|
|-3---------4-|

Main Riff 6x
[ Tab from: http://www.guitartabs.cc/tabs/l/lacuna_coil/halflife_btab.html ]
Interlude2:
|--------------------------------|
|--------------------------------|
|--------------------------------| 2x
|----------------44-44-44444-666-|
|-333333-3333333-----------------|

|------------------------------|
|------------------------------|
|------------------------------| 2x
|-333333333333-44-44-44444-----|
|--------------------------333-|

Main Riff 4x

Interlude 1 4x

Main Riff 4x

Interlude 3:
|-----------------------------|
|-----------------------------|
|-5---55-5-5-5-5-5-5-55555555-|
|-----------------------------|
|-----------------------------|

Main Riff 6x

End:
|--------------|
|--------------|
|--------------|
|--------------|
|-3-(let ring)-|
Comments