Lacuna Coil - Falling Again Chords & Tabs

 

Falling Again Chords & Tabs

Lacuna Coil Chords & Tabs

Version: 1 Type: Bass Tab 0 ratings
1 star 2 stars 3 stars 4 stars 5 stars
comments

Falling Again Bass Tab

G||------|------|------|------|------|------|------|------|------|------|------|
D||------|------|------|------|------|------|------|------|------|------|------|
A||------|------|------|------|------|------|------|------|------|------|------|
E||------|------|------|------|------|------|------|------|------|------|------|
B||------|------|------|------|------|------|------|------|------|------|------|



                                                               
------|------|------|------|------|------|--------------------|
------|------|------|------|------|------|--------------------|
------|------|------|------|------|------|--------------------|
------|------|------|------|------|------|--1--------0--------|
------|------|------|------|------|------|--------------------|


                                                               
--------------------|--------------------|--------------------|
--------------------|--------------------|--------------------|
-----------3--------|--------------------|-----------3--------|
--5-----------------|--1--------0--------|--5-----------------|
--------------------|--------------------|--------------------|


                                                               
--------------------|--------------------|--------------------|
--------------------|--------------------|--------------------|
--------------------|-----------3--------|--------------------|
--1--------0--------|--5-----------------|--1--------0--------|
--------------------|--------------------|--------------------|


                                                               
--------------------|--------------------|--------------------|
--------------------|--------------------|--------------------|
-----------3--------|--------------------|-----------3--------|
--5-----------------|--1--------0--------|--5-----------------|
--------------------|--------------------|--------------------|


                                                               
--------------------|--------------------|--------------------|
--------------------|--------------------|--------------------|
--------------------|-----------3--------|--------------------|
--1--------0--------|--5-----------------|--1--------0--------|
--------------------|--------------------|--------------------|


                                                               
--------------------|--------------------|--------------------|
--------------------|--------------------|--------------------|
-----------3--------|--------------------|-----------3--------|
--5-----------------|--1--------0--------|--5-----------------|
--------------------|--------------------|--------------------|


                                                                             
--------------------|------|------|------|------|------|------|------|------|
--------------------|------|------|------|------|------|------|------|------|
--------------------|------|------|------|------|------|------|------|------|
--1--------3--------|------|------|------|------|------|------|------|------|
--------------------|------|------|------|------|------|------|------|------|


                                                                             
------|------|------|------|------|------|------|------|------|------|------|
------|------|------|------|------|------|------|------|------|------|------|
------|------|------|------|------|------|------|------|------|------|------|
------|------|------|------|------|------|------|------|------|------|------|
------|------|------|------|------|------|------|------|------|------|------|

[ Tab from: http://www.guitartabs.cc/tabs/l/lacuna_coil/falling_again_btab.html ]
                                                               
------|------|------|------|------|------|------|------|------|
------|------|------|------|------|------|------|------|------|
------|------|------|------|------|------|------|------|------|
------|------|------|------|------|------|------|------|------|
------|------|------|------|------|------|------|------|------|


                                                               
--------------------|--------------------|--------------------|
--------------------|--------------------|--------------------|
--------------------|-----------3--------|--------------------|
--1--------0--------|--5-----------------|--1--------0--------|
--------------------|--------------------|--------------------|


                                                               
--------------------|--------------------|--------------------|
--------------------|--------------------|--------------------|
-----------3--------|--------------------|-----------3--------|
--5-----------------|--1--------0--------|--5-----------------|
--------------------|--------------------|--------------------|


                                                               
--------------------|--------------------|--------------------|
--------------------|--------------------|--------------------|
--------------------|-----------3--------|--------------------|
--1--------0--------|--5-----------------|--1--------0--------|
--------------------|--------------------|--------------------|


                                                               
--------------------|--------------------|--------------------|
--------------------|--------------------|--------------------|
-----------3--------|--------------------|-----------3--------|
--5-----------------|--1--------0--------|--5-----------------|
--------------------|--------------------|--------------------|


                                                               
--------------------|--------------------|--------------------|
--------------------|--------------------|--------------------|
--------------------|-----------3--------|--------------------|
--1--------0--------|--5-----------------|--1--------0--------|
--------------------|--------------------|--------------------|


                                                               
--------------------|--------------------|--------------------|
--------------------|--------------------|--------------------|
-----------3--------|--------------------|-----------3--------|
--5-----------------|--1--------0--------|--5-----------------|
--------------------|--------------------|--------------------|


                                                               
--------------------|--------------------|--------------------|
--------------------|--------------------|--------------------|
--------------------|-----------3--------|--------------------|
--1--------0--------|--5-----------------|--1--------0--------|
--------------------|--------------------|--------------------|


                                                               
--------------------|--------------------|--------------------|
--------------------|--------------------|--------------------|
-----------3--------|--------------------|-----------3--------|
--5-----------------|--1--------0--------|--5-----------------|
--------------------|--------------------|--------------------|


                                             
--------------------|-----------|----------||
--------------------|-----------|----------||
--------------------|-----------|----------||
--1--------3--------|--5--------|----------||
--------------------|-----------|----------||
Comments