Lacuna Coil - Distant Sun Chords & Tabs

 

Distant Sun Chords & Tabs

Lacuna Coil Chords & Tabs

Version: 1 Type: Tab 0 ratings
1 star 2 stars 3 stars 4 stars 5 stars
comments

Distant Sun Tab

   
Band- Lacuna Coil
Song- Distant Sun

Tuning: Standard (E A D G B E)

Intro
e|--------------------------------|
b|------------14---------------12-|
G|-11-14--13--------11-14--13-----|
D|--------------------------------|
A|--------------------------------|
E|--------------------------------|

Intro - Distorted
e|--------------------------------|
b|--------------------------------|
G|-6p4-4-4-6p4---6-4-4-4h6--------|
D|-------------4-----------4------|
A|--------------------------------|
E|--------------------------------|
B|--------------------------------|

Bridge
e|-----------|----------|
b|-----------|----------|
G|-----------|----------|
D|-----7--5--|-----7--5-|
A|-4---5--3--|-4---5--3-|
E|-2---------|-2--------|
B|-----------|----------|

Chorus
e|-----------------------|
b|-----------------------|
G|-----------------------|
D|----------4------------|
A|-4--6--7--2--6----7--2-|
E|-2--4--5-----4----5--0-|
B|-----------------------|
[ Tab from: http://www.guitartabs.cc/tabs/l/lacuna_coil/distant_sun_tab.html ]
Interlude               2x                         Fig.1   Fig.2
e|-----------------------------------------------|--------|-----|
b|-----------------------------------------------|--------|-----|
G|-----------------------------------------------|--------|-----|
D|-----------------------------------------------|--------|-----|
A|----------------7777-444444-6666-6666-6666-6666|-666666-|-7-7-|
E|-4444-6666-7777-5555-222222-4444-4444-4444-4444|-444444-|-5-5-|
B|-2222-4444-5555--------------------------------|--------|-----|

e|----------------------------------------------------|
b|----------------------------------------------------|
G|----------------------------------------------------|
D|----------------------------------------------------| 4x
A|----------------7----4------6----6----6----6----7-7-|
E|-4----6----7----5----2------4----4----4----4----5-5-|
B|-2----4----5----------------------------------------|

Fill
e|----------------------|
b|----------------------|
G|----------------------|
D|----------------------|
A|-444-XX444-X444-XX444-|
E|-222-XX222-X222-XX222-|
B|----------------------|

Comments