Lacuna Coil - Comalies Chords & Tabs

 

Comalies Chords & Tabs

Lacuna Coil Chords & Tabs

Version: 1 Type: Bass Tab 0 ratings
1 star 2 stars 3 stars 4 stars 5 stars
comments

Comalies Bass Tab

Intro:
|--------------|
|--------------|
|----1---------| 4x
|-3------------|
|-------3--1---|

|--------------|
|--------------|
|--------------|
|--------------|
|-3-(let ring)-|

Verse:
|---------------------------|
|---------------------------|
|-----------10--35535-35533-|4x
|-13313-1333----------------|
|---------------------------|
(That's 1 and 0, not 10)
[ Tab from: http://www.guitartabs.cc/tabs/l/lacuna_coil/comalies_btab.html ]
Bridge:
|---------------------------------------------------------|
|---------------------------------------------------------|
|-----111155555555----111155555533----111155555555-7--8-3-|
|-3333------------3333------------3333--------------------|
|---------------------------------------------------------|

Chorus:
|--------------|
|--------------|
|----1---------| 4x
|-3------------|
|-------3--1---|

Verse 4x
Bridge 

Chorus 4x

Interlude:
No bass playin, but you can play this at the beginning:
|--------------|
|--------------|
|--------------|
|-3-(let ring)-|
|--------------|

Chorus 6x

End:
|--------------|
|--------------|
|--------------|
|--------------|
|-3-(let ring)-|
Comments