Lacuna Coil - Cold Chords & Tabs

 

Cold Chords & Tabs

Lacuna Coil Chords & Tabs

Version: 1 Type: Bass Tab 0 ratings
1 star 2 stars 3 stars 4 stars 5 stars
comments

Cold Bass Tab

Verse

G----------------------------|
D----------------------------|
A--7~----5~----2~------------|
E---------------------3~-----|


Pre-Chorus
"Closer and closer..."

G----------------------------|
D----------------------------|
A----------------------------|
E--0-0-0-2-2-2-3-3-3--5-5-5--|


Chorus
"But I'm reaching for the sky..."
[ Tab from: http://www.guitartabs.cc/tabs/l/lacuna_coil/cold_btab.html ]
G----------------------------|
D----------------------------|
A----------------------------|
E--0~----2~---3~------5~-----| 


'Bridge'

G----------------------------|
D----------------------------| 
A----------------------------| x8
E--7~----5~---2~------5~-----|


Ending...

G----------------------------|
D----------------------------| x4
A--5-5-5-3-3-3-5-5-5---------|
E---------------------5-5-5--|
Comments