Lacuna Coil - Circle Chords & Tabs

 

Circle Chords & Tabs

Lacuna Coil Chords & Tabs

Version: 1 Type: Bass Tab 0 ratings
1 star 2 stars 3 stars 4 stars 5 stars
comments

Circle Bass Tab

standard tuning

G||--------------------|-------------------|-------------------|
D||*-------------------|-------------------|-------------------|
A||*-------------------|-------------------|-------------------|
E||---5----------------|--1----------------|--0----------------|


                                                                
--------------------||-------------------||--------------------|
-------------------*||-------------------||*-------------------|
-------------------*||-------------------||*-------------------|
--3-----------------||--3----------------||---5----------------|


                                                              
-------------------|-------------------|--------------------||
-------------------|-------------------|-------------------*||
-------------------|-------------------|-------------------*||
--1----------------|--0----------------|--3-----------------||


                                                       
---------------------------|--------------------------|
*--------------------------|--------------------------|
*--------------------------|--------------------------|
---5--5--5--5--5--5--5--5--|--1--1--1--1--1--1--1--1--|


                                                                              
--------------------------|---------------------------||---------------------|
--------------------------|--------------------------*||*--------------------|
--------------------------|--------------------------*||*--3-----------------|
--0--0--0--0--0--0--0--0--|--3--3--3--3--3--3--3--3---||----------------3----|


                                                                          
----------------|--------------------|-----------------||----------------|
----------------|--------------------|----------------*||----------------|
----------------|--------------------|----------------*||----------------|
--4------6------|--1------------3----|--4------6-------||--4------6------|


                                                                 
|---------------------|--------------------|--------------------|
|*--------------------|--------------------|--------------------|
|*--5-----------------|--1-----------------|--5-----------------|
|--------------5------|-------------3------|-------------5------|


                                                               
---------------------||-------------------|-------------------|
--------------------*||-------------------|-------------------|
--1----------3------*||-------------------|-------------------|
---------------------||--5----------------|--1----------------|


                                                              
-------------------|-------------------||--------------------|
-------------------|-------------------||*-------------------|
-------------------|-------------------||*-------------------|
--0----------------|--3----------------||---5----------------|


                                                              
-------------------|-------------------|--------------------||
-------------------|-------------------|-------------------*||
-------------------|-------------------|-------------------*||
--1----------------|--0----------------|--3-----------------||

[ Tab from: http://www.guitartabs.cc/tabs/l/lacuna_coil/circle_btab.html ]
                                                       
---------------------------|--------------------------|
*--------------------------|--------------------------|
*--------------------------|--------------------------|
---5--5--5--5--5--5--5--5--|--1--1--1--1--1--1--1--1--|


                                                                              
--------------------------|---------------------------||---------------------|
--------------------------|--------------------------*||*--------------------|
--------------------------|--------------------------*||*--3-----------------|
--0--0--0--0--0--0--0--0--|--3--3--3--3--3--3--3--3---||----------------3----|


                                                                          
----------------|--------------------|-----------------||----------------|
----------------|--------------------|----------------*||----------------|
----------------|--------------------|----------------*||----------------|
--4------6------|--1------------3----|--4------6-------||--4------6------|


                                                                 
|---------------------|--------------------|--------------------|
|*--------------------|--------------------|--------------------|
|*--5-----------------|--1-----------------|--5-----------------|
|--------------5------|-------------3------|-------------5------|


                     3x                                        
---------------------||--------------------|------------------|
--------------------*||*-------------------|------------------|
--1----------3------*||*-------------------|------------------|
---------------------||---5----------------|------------------|


                                                                               
------------------|-------------------||------------------|-------------------|
------------------|------------------*||------------------|-------------------|
------------------|------------------*||------------------|-------------------|
------------------|-------------------||------------------|--5----------------|


                                                                                
------------------|-------------------|-------------------|--------------------|
------------------|-------------------|-------------------|--------------------|
------------------|-------------------|-------------------|--------------------|
------------------|--5----------------|--5----------------|--5--------5--------|


                                                                   
--------------------|----------------------|----------------------|
--------------------|----------------------|----------------------|
--------------------|----------------------|----------------------|
--5--------5--------|--5----5----5----5----|--5----5----5----5----|


                                                                 
|---------------------|--------------------|--------------------|
|*--------------------|--------------------|--------------------|
|*--5-----------------|--1-----------------|--5-----------------|
|--------------5------|-------------3------|-------------5------|


                     3x                             
---------------------||------|------|------|------||
--------------------*||------|------|------|------||
--1----------3------*||------|------|------|------||
---------------------||------|------|------|------||
Comments