Lacuna Coil - 1 19 Chords & Tabs

 

1 19 Chords & Tabs

Lacuna Coil Chords & Tabs

Version: 1 Type: Bass Tab 0 ratings
1 star 2 stars 3 stars 4 stars 5 stars
comments

1 19 Bass Tab

Band- Lacuna Coil
Song- 1 19

# = Stop

Intro:
|-------|
|-------|
|-0/4\0-|
|-------|
|-------|

|-------------|
|-------------|
|-00-0--0-000-|
|-------------|
|-------------|
Don't sure about the rythm... check out yourself!

VerseRiff 1:
|--------------|
|--------------|
|-0-1-0-1-/4-4-| 4x
|--------------|
|--------------|

VerseRiff 2:
|--------------|
|--------------|
|-0-1-0-0-/4-4-| 4x
|--------------|
|--------------|
[ Tab from: http://www.guitartabs.cc/tabs/l/lacuna_coil/1_19_btab.html ]
Bridge:
|--------------------------------------------------|
|--------------------------------------------------|
|-5--0--1--3--5--0--1--3----5--0--1--3--5--0--1--3-|
|-----------------------31-------------------------|
|--------------------------------------------------|

VerseRiff 1 4x

Chorus:
|--------------------------|
|--------------------------|
|-5------------5---------3-| 2x
|---5-1--3-------5-1--3----|
|-----------1--------------|

VerseRiff 1 4x

VerseRiff 3:
|-----------------------------------------------------------------|
|-----------------------------------------------------------------|
|-0-1-0#--0-/4-4#-0-1-0#--0-/4-4-0001110#-0-/4-4#-0-1-0#--0-/4-4--| 2x
|-----------------------------------------------------------------|
|-----------------------------------------------------------------|

Bridge

VerseRiff 1 8x

Chorus 2x

Intro (without the slide) 4x

Chorus 4x

End:
|---------|
|---------|
|---------|
|---------|
|-3333333-|


Comments