Lacrimosa - Ich Verlasse Heunt Dein Herz Chords & Tabs

 

Ich Verlasse Heunt Dein Herz Chords & Tabs

Lacrimosa Chords & Tabs

Version: 1 Type: Bass Tab 0 ratings
1 star 2 stars 3 stars 4 stars 5 stars
comments

Ich Verlasse Heunt Dein Herz Bass Tab

 BAND: lacrimosa
 SONG: Ich Verlasse heut Dein Herz
 Album: Elodia


INTRO:
 ---------------------------|
 ---------------------------|
 ---------------------------|
 -------5-4-3-2-1-0-1-2-3-4-|

bass part (first part):
 G-----------------------------------------------------------------------|
 D-----------------------------------------------------------------------|
 A--------------------------------0-0---------------------------0-0----0-|
 E-----3-4-5-5-5-5-5-5-5-0-1-1-1-1---0-0-3-3-3-3-3-3-3-0-4-4-4-0---0-0---|

bass part (second part):
[ Tab from: http://www.guitartabs.cc/tabs/l/lacrimosa/ich_verlasse_heunt_dein_herz_btab.html ]
 G----------------------------------------------------------------------|
 D----------------------------------------------------------------------|
 A------------------------0-0---------------------------0-0----0--------|
 E-5-5-5-5-5-5-5-0-1-1-1-1---0-0-3-3-3-3-3-3-3-0-4-4-4-0---0-0----------|

bass part (paused one):

 G----------------------------------------------------------------------|
 D----------------------------------------------------------------------|
 A------------------------0-----------------------------0------0--------|
 E-5-------------0-1---------0---3-------------0-4-----0---0------------|

any corrections please at: linning_rugs@hotmail.com
Comments