La Ruda Salska - Indianapolis Chords & Tabs

 

Indianapolis Chords & Tabs

La Ruda Salska Chords & Tabs

Version: 1 Type: Tab 0 ratings
1 star 2 stars 3 stars 4 stars 5 stars
comments

Indianapolis Tab

La Ruda Salska-Indianapolis  

Par Georges/Homer/Fab (crazy_georges2000@hotmail.com)
Vive la Ruda!!!


Intro (Clean)/Couplet
    La5                    Sol5        Fa5      
E||--------------------------|---------------------||
B||--------------------------|--------------1------||
G||--------2--------2--0-----|-----0-----------2--*||
D||-----2--------2-----------|--------------------*||
A||--0--------0--------------|--2--------3---------||
E||-----------------------3--|--------1------------||
La 2nde guitare joue l'accord 

Pont
          
E||----------------------|-------||
B||----------------------|-------||
G||--2-------------------|--2----||
D||--2-------------------|--2----||
A||--0-------------------|--0----||
E||-------1----3----1----|-------||
       
Pre refrain
[ Tab from: http://www.guitartabs.cc/tabs/l/la_ruda_salska/indianapolis_tab.html ]
E||----------------------||
B||----------------------||
G||----------------------||
D||--2----~~7--4----5----||
A||--0---------2----3----||
E||----------------------||
 
Refrain
                                 
E||--------------------------|--------------------------|
B||--------------------------|--------------------------|
G||--5--5--5--5--5--5--5--5--|--------------------------|
D||--5--5--5--5--5--5--5--5--|--------------------------|
A||--3--3--3--3--3--3--3--3--|--5--5--5--5--5--5--5--5--|
E||--------------------------|--3--3--3--3--3--3--3--3--|


                                                         
--------------------------|----------------------------||
--------------------------|----------------------------||
--------------------------|---------------------------*||
--7--7--7--7--7--7--7--7--|--2--2--2--2---------------*||
--5--5--5--5--5--5--5--5--|--0--0--0--0--5---5--5--5---||
--------------------------|--------------3---3--3--3---||

Break (en route pour la gloire...)
                                         
E||--------------------------|--------------------------|
B||--------------------------|--------------------------|
G||--------------------------|--------------------------|
D||--2--2--2--2--2--2--2--2--|--4--4--4--4--4--4--4--4--|
A||--0--0--0--0--0--0--0--0--|--2--2--2--2--2--2--2--2--|
E||--------------------------|--------------------------|
guitare 1 doublee a l'octave par guitare 2

                            
--------------------------||
--------------------------||
--------------------------||
--5--5--5--5--5--5--5--5--||
--3--3--3--3--3--3--3--3--||
--------------------------||
Comments