La Renga - La Razon Que Te Demora Chords & Tabs

 

La Razon Que Te Demora Chords & Tabs

La Renga Chords & Tabs

Version: 1 Type: Tab 0 ratings
1 star 2 stars 3 stars 4 stars 5 stars
comments

La Razon Que Te Demora Tab

   
-----------------------------------------------------------------------------
		       LA RAZON QUE TE DEMORA - La Renga
-----------------------------------------------------------------------------

Tabbed by: Ignacio "Coco" Vespoli	
Email: cocofuhgawz@hotmail.com		

Tuning: Normal

INTRO
         Bm             Dsus4              G          Dsus4    
[ Tab from: http://www.guitartabs.cc/tabs/l/la_renga/la_razon_que_te_demora_tab.html ]
e|--------2----------------3p2------------3--------------2-3p2-------|
B|----------3-----------3------3------------0---0------3-------3-----|
G|------4-----4-------2---2--------2----0-----0------2-----------2---|
D|----4---------4---0------------------------------0-----------------|
A|--2----------------------------------------------------------------|
E|------------------------------------3------------------------------|

   F#sus4\7    A9      F#sus4\7     Bm       G       D    F#sus4\7 

e|------0---------0--------0-----------------------------------------|
B|------0---------0--------0-----------------------------------------|
G|------3---------6--------3-----------------------------------------|
D|------4---------7--------4-----------------------------------------|
A|----4---------7--------4-------------------------------------------|
E|--2---------5--------2---------------------------------------------|




 /  slide up
 \  slide down
 h  hammer-on
 p  pull-off
 ~  vibrato
 +  harmonic
 x  Mute note
===============================================================================
Comments? Send me an e-mail!!! also check my the solo version for this song!!!
Comments