La Renga - La Balada Del Diablo Y La Muerte Chords & Tabs

 

La Balada Del Diablo Y La Muerte Chords & Tabs

La Renga Chords & Tabs

Version: 1 Type: Tab 0 ratings
1 star 2 stars 3 stars 4 stars 5 stars
comments

La Balada Del Diablo Y La Muerte Tab

***LA RENGA***
LA BALADA DEL DIABLO Y LA MUERTE **/Tab by Meck/**



INTRO:
E|-----0-----------------------------3h2---------------------|
B|-----0-----------------------------3-----------------------|
G|-----0-----------------------------2---0--2-2--------------|
D|-----2----------0h2h0------0-----0-----0--2-2-x-x-2h4h2----|
A|---2-----------------2h0-----0-------------------------4/2-|
E|-0------0-2-3----------------------------------------------|

CORO:
E|------------------------------|------------------------------|
B|------------------------------|------------------------------|
G|------------------------------|--(7)----7--x-x---------------|
D|--(2)----2--x-x-(5)----5--x-x-|--(7)----7--x-x-(7)----7--x-x-|
A|--(2)----2--x-x-(5)----5--x-x-|--(5)----5--x-x-(7)----7--x-x-|
E|--(0)----0--x-x-(3)----3--x-x-|----------------(5)----5--x-x-|
                                                     
E|----------------------------|------------------------------|
B|----------------------------|------------------------------|
G|--------------(5)----5--x-x-|----------------(7)----7------|
D|--7----7--x-x-(5)----5--x-x-|--(5)----5--x-x-(7)----7--x-x-|
A|--7----7--x-x-(3)----3--x-x-|--(5)----5--x-x-(5)----5--x-x-|
E|--5----5--x-x---------------|--(3)----3--x-x-----------x-x-|
                                                   
E|------------------------------|------------------------------|
B|------------------------------|------------------------------|
G|----------------(5)----5--x-x-|----------------(7)----7------|
D|--(7)----7--x-x-(5)----5--x-x-|--(5)----5--x-x-(7)----7--x-x-|
A|--(7)----7--x-x-(3)----3--x-x-|--(5)----5--x-x-(5)----5--x-x-|
E|--(5)----5--x-x---------------|--(3)----3--x-x-----------x-x-|
                                                     
E|------------------------------|------------------------------|
B|------------------------------|------------------------------|
G|----------------(5)----5--x-x-|------------------------------|
D|--(7)----7--x-x-(5)----5--x-x-|--(5)----5--x-x-(5)----5--x-x-|
A|--(7)----7--x-x-(3)----3--x-x-|--(5)----5--x-x-(5)----5--x-x-|
E|--(5)----5--x-x---------------|--(3)----3--x-x-(3)----3--x-x-|
[ Tab from: http://www.guitartabs.cc/tabs/l/la_renga/la_balada_del_diablo_y_la_muerte_tab.html ]
SOLO:
E|-----------------------|--------------------------|
B|-----------------------|--10^-----------10^--10h8h|
G|---------------7/9-9^--|--------------------------|
D|-----------------------|--------------------------|
A|-----------------------|--------------------------|
E|-----------------------|--------------------------|
                                                               
E|-------------------------------|------------------------------|
B|--10-----8-7-8----8/15/--------|------------------------------|
G|-----------------------9-------|--9----9--------7----9--------|
D|-------------------------8h7---|----------8h7-----------8-7---|
A|-----------------------------9-|--------------9-------------9-|
E|-------------------------------|------------------------------|
                                                               
E|------------------------------|-----------10------------------|
B|--------------------------8-8-|--8---10^------10^---10^--10-8-|
G|------------------------9-----|-------------------------------|
D|--7---5-7-5-7-7^--7-5-7-------|-------------------------------|
A|------------------------------|-------------------------------|
E|------------------------------|-------------------------------|
                                
E|-----------------10------------|
B|--10----8--7--8-----8--7--8--7-|
G|-------------------------------|
D|-------------------------------|
A|-------------------------------|
E|-------------------------------|
                                                                           
E|--10-7-----10-7-----10-7-----10-7-----10-7-----10-7-----10-7-----10-7-----|
B|-------8-7------8-7------8-7------8-7------8-7------8-7------8-7------8-7-|
G|--------------------------------------------------------------------------|
D|--------------------------------------------------------------------------|
A|--------------------------------------------------------------------------|
E|--------------------------------------------------------------------------|
                                                
E|--10-7-----10-7-----10-7-----10-7------12^^^----|
B|-------8-7------8-7------8-7------8-7-----------|
G|------------------------------------------------|
D|------------------------------------------------|
A|------------------------------------------------|
E|------------------------------------------------|
                                                
E|--------------------------------------------------|
B|--10-10-10-10/12-12-12-12/13-13-13-13/12-12-12-12-|
G|--------------------------------------------------|
D|--------------------------------------------------|
A|--------------------------------------------------|
E|--------------------------------------------------|
                                                   
E|--------------------------------------------------|
B|--10-10-10-10/12-12-12-12/13-13-13/12-12-12-12-12-|
G|--------------------------------------------------|
D|--------------------------------------------------|
A|--------------------------------------------------|
E|--------------------------------------------------|
                                                            
E|--12--14--15--14--12--15^-------|--15--17--17^-----17^-----|
B|----------------------------17--|--------------------------|
G|--------------------------------|--------------------------|
D|--------------------------------|--------------------------|
A|--------------------------------|--------------------------|
E|--------------------------------|--------------------------|
                                                       
E|--17--15--17r---15----------|--15----------------------|
B|----------------------17----|--------17r---15----------|
G|----------------------------|--------------------16----|
D|----------------------------|--------------------------|
A|----------------------------|--------------------------|
E|----------------------------|--------------------------|
                                                        
E|--------------------------|--12/---------------||
B|--15----17----------------|--12/---------------||
G|--------------------------|--12/---------------||
D|--------------------------|--------------------||
A|--------------------------|--------------------||
E|--------------------------|--------------------||

X = Palm Mute
^ = Bend
(0) = Ghost Note


Tab By Meck (meckverdugo@hotmail.com)
Comments