La Dispute - Said The King To The River Chords & Tabs

 

Said The King To The River Chords & Tabs

La Dispute Chords & Tabs

Version: 1 Type: Bass Tab 0 ratings
1 star 2 stars 3 stars 4 stars 5 stars
comments

Said The King To The River Bass Tab

Bassist:  Adam Vass
Hey guys this is my first tab.  I really wanted a tab for this song, but there weren't 
any online so I decided to make this one so it may not be 100% correct.  Credit goes to 
this video because it made it easier to figure out the notes.
http://www.youtube.com/watch?v=6y53n_HCYro

(Intro) (00:00-00:13)
G|-9-9h10p99-9-9-9-9h10p99-9----------------------------------------| x2
D|------------------------------------------------------------------|
A|------------------------------------------------------------------|
E|------------------------------------------------------------------|

(Verse 1) (00:13-00:18) Same as Intro
G|-9-9h10p99-9-9-9-9h10p99-9----------------------------------------| x1
D|------------------------------------------------------------------|
A|------------------------------------------------------------------|
E|------------------------------------------------------------------|

(Verse 1 Cont.) (00:18-00:30)
G|------------------------------------------------------------------| x1
D|------------------------------------------------------------------|
A|------------------------------------------------------------------|
E|-5/1-------5--------1-------5----5555555--------------------------|

(Verse 2) (00:30-00:43)
G|-9-9h10p99-9-9-9-9h10p99-9----------------------------------------| x2
D|------------------------------------------------------------------|
A|------------------------------------------------------------------|
E|------------------------------------------------------------------|

(Verse 2 Cont.) (00:43-00:55)
G|------------------------------------------------------------------| x1
D|------------------------------------------------------------------|
A|---------8---8888-7-777-------------------------------------------|
E|-5----------------------------------------------------------------|

(Verse 3) (00:55-01:07)
G|------------------------------------------------------------------| x2
D|------------------------------------------------------------------|
A|--------------------------888-------------------------------------|
E|-555-55-555-55-555-55-888-----------------------------------------|

(Verse 4) (01:07-1:17)  This part I'm not sure of leave a comment telling me if I'm 
correct or not or if you know what it is.
G|------------------------------------------------------------------| x5
D|--7---------------------------------------------------------------|
A|---5-7-5-7--------------------------------------------------------|
E|-5--------7-8-7---------------------------------------------------|

G|------------------------------------------------------------------| x1
D|--7---------------------------------------------------------------|
A|---5-7-5-7--------------------------------------------------------|
E|-5--------7-8-7-5-------------------------------------------------|
[ Tab from: http://www.guitartabs.cc/tabs/l/la_dispute/said_the_king_to_the_river_btab.html ]
(Bridge I think?) (1:19-1:52)
G|------------------------------------------------------------------|  Just relly keep 
doing that until 1:52
D|------------------------------------------------------------------|
A|------------------------------------------------------------------|
E|-5-5-55-5-55-5-55-5-55--------------------------------------------|

Idk what to call the next few parts but I'll just put the time they come in.  (1:56-1:57)
G|------------------------------------------------------------------|
D|------------------------------------------------------------------|
A|------------------------------------------------------------------|
E|-88-8-------------------------------------------------------------|

(2:01-2:20)
G|------------------------------------------------------------------| x2
D|-------7757-------------------------------------------------------|
A|------------5535-8878---------------------------------------------|
E|-555-5------------------------------------------------------------|

(2:23-2:33)
G|------------------------------------------------------------------| x1
D|--777-------------------------------------------------------------|
A|------888----557h8p7----------------------------------- ----------|
E|-5--------55------------------------------------------------------|

(2:33-2:44)
G|------------------------------------------------------------------| x1
D|------------------------------------------------------------------|
A|--------5---------------------------------------------------------|
E|-1-5-11---5-5-11-7-8-5--------------------------------------------|

(2:52-3:18)
G|------------------------------------------------------------------| x5
D|-5h7777-5777-5777-------------------------------------------------|
A|------------------3-7777-5553555----------------------------------|
E|------------------------------------------------------------------|

(3:18-3:28)
G|------------------------------------------------------------------| x2
D|------------------------------------------------------------------|
A|-------------5---555----------------------------------------------|
E|-5-5-5---1-1------------------------------------------------------|

(3:28-3:34)
G|----------------------7-------------------------------------------| x1
D|-----7----------3---7---------------------------------------------|
A|---7----7-----3---5-----------------------------------------------|
E|-5----5---5-1-----------------------------------------------------|
(3:34-3:39)
G|----------------------7-------------------------------------------| x1
D|-----7----------3---7---------------------------------------------|
A|---7----------3---5-----------------------------------------------|
E|-5--------5-1-----------------------------------------------------|

(3:51.5-4:01)
G|------------------------------------------------------------------| x1
D|------------------------------------------------------------------|
A|---7--------------------------------------------------------------|
E|-55-5-555-555-55-555-555------------------------------------------|
Comments