La Dispute - Safer In The Forest Love Song For Poor Michigan Chords & Tabs

 

Safer In The Forest Love Song For Poor Michigan Chords & Tabs

La Dispute Chords & Tabs

Version: 2 Type: Tab 0 ratings
1 star 2 stars 3 stars 4 stars 5 stars
comments

Safer In The Forest Love Song For Poor Michigan Tab

Part A  - 4 Times

|----------------------------------------|---------------------------------|
|----------------------------------------|---------------------------------|
|------------11-----12-----11-----------|-------------9--------------------|        4x
|---14-14--------14-----14------14---------|----12-12------12--10-10-9-10--|
|----------------------------------------|---------------------------------|
|----------------------------------------|---------------------------------|

|--------------------------------------------------------|
|----------------7---------8-----------------------------|
|----------5----------5----------5----4----5-------------|
|----7-7------7----7----7----7----7-----7----7-----------|         2x
|--------------------------------------------------------|
|--------------------------------------------------------|

|----------------------------------------------------------------|
|----------------8---------10---------8--------------------------|
|----------7----------7----------7---------7---------------------|
|----9-9------9----9----9----9-----9----9---9--------------------|               2x
|----------------------------------------------------------------|
|----------------------------------------------------------------|

|--------------------------------------------------------------|
|-----------------------10------------13-----------10----------|
|-------------11---------------11-----------11-------------11--|           2x
|----13-13------13----------13----13-----13----13-----13-------|
|--------------------------------------------------------------|
|--------------------------------------------------------------|

[ Tab from: http://www.guitartabs.cc/tabs/l/la_dispute/safer_in_the_forest_love_song_for_poor_michigan_tab_ver_2.html ]
|----------------------------------------|--------------------------------------------|
|----------------------------------------|--------------------------------------------|
|------------11-----12-----14-----------|--16------14------12-------11----------------|
|---14-14-----14-----14------14---------|-------14------14-------14------14-----------|
|----------------------------------------|--------------------------------------------|
|----------------------------------------|--------------------------------------------|

|----------------------------------------|--------------------------------------------|
|----------------------------------------|--------------------------------------------|
|------------11-----12-----14-----------|--16------17------16-------14----------------|
|---14-14--------14-----14------14------|-------14------14-------14------14-----------|
|----------------------------------------|--------------------------------------------|
|----------------------------------------|--------------------------------------------|


|------------------------------------------------------------------------|
|-----------------------10-----------13-----------10---------------------|
|-------------11---------------11-----------11-------------11------------|
|----13-13----------13------13----13----13----13----13-------------------|
|------------------------------------------------------------------------|
|------------------------------------------------------------------------|


|-----------------------------------------------------------------------------------|
|-----------------------10-------------s15--12--------------------------------------|
|-------------11---------------11----------------14--12-----------------------------|
|----13-13---------13------13----13------------------------s14-12-14-12-------------|
|-----------------------------------------------------------------------------------|
|-----------------------------------------------------------------------------------|
Comments