La Dispute - How I Feel Chords & Tabs

 

How I Feel Chords & Tabs

La Dispute Chords & Tabs

Version: 1 Type: Bass Tab 0 ratings
1 star 2 stars 3 stars 4 stars 5 stars
comments

How I Feel Bass Tab

-------------------------------------------------------------------------------
			     How I Feel - La Dispute
-------------------------------------------------------------------------------

Tabbed By : Kamdude
e-mail: triathlete_max@hotmail.com

This is my first bass tab, so it may not be 100% correct, but it should be close enough I think

Tuning: Standard


G|-----------------------------------------------|
D|-----------------------------------------------|  x4
A|---3h2p0---3h2p0---3h2p0-----------------------|
E|-0-------0-------0--------3-3------------------|

G|-------------------------------------|
D|-------------------------------------|
A|-2-5---------------------------------|  x4
E|------3----2-5-0---------------------|
[ Tab from: http://www.guitartabs.cc/tabs/l/la_dispute/how_i_feel_btab.html ]
G|-------------------------|
D|-------------------------|       I'm not sure if the bass plays muted notes
A|-------------------------|  x4   here as well but I put it in for timing
E|-0-xxx-0-xxx-0-xxx-33----|


@:54
G|---------------------------------------------------------------------|
D|---------------------------------------------------------------------| X2
A|-77777777555555553333333322222222--------33332222-7777777777777777---|
E|---------------------------------33333333----------------------------|


"So I take the cards they give me"
G|--------------------------------------------------------------------------|
D|--------------------------------------------------------------------------|
A|-77777777555555553333333322222222--------33332222-5h7777-5h7777-5h77777777|
E|---------------------------------33333333---------------------------------|


"Don't we all just die?"
G|----------------------------------|              |------|
D|----------------------------------| x4  ends on  |------|
A|----------------------------------|              |------|
E|-333333333----22222222-55555555---|              |--3---|

Comments