La Dispute - He Is Here He Is Not Afraid Chords & Tabs

 

He Is Here He Is Not Afraid Chords & Tabs

La Dispute Chords & Tabs

Version: 2 Type: Tab 0 ratings
1 star 2 stars 3 stars 4 stars 5 stars
comments

He Is Here He Is Not Afraid Tab

-------------------------------------------------------------------------------
			He Is Here He Is Not Afraid- La Dispute
-------------------------------------------------------------------------------

Tabbed By : Kamdude
e-mail: triathlete_max@hotmail.com

Tuning: Standard

0:35-0:58

G|---------------------------------------------------------------------------|
D|---------------------------------------------------------------------------| 
A|--0---0---5-6-0---0---5-0---0---5-6-0---0---5-6-7--------------------------| x4
E|---------------------------------------------------------------------------|



1:14
G|---------------------------------------------------------------------------|
D|---------------------------------------------------------------------------| 
A|--0---0---5-6-0---0---5-0---0---5-6-0---0---5-0---0---5-6------------------| 
E|---------------------------------------------------------------------------|

G|---------------------------------------------------------------------------|
D|---------------------------------------------------------------------------|  x3
A|--0---0---5-6-0---0---5-0---0---5-6----------------------------------------| 
E|---------------------------------------------------------------------------|
[ Tab from: http://www.guitartabs.cc/tabs/l/la_dispute/he_is_here_he_is_not_afraid_tab_ver_2.html ]
1:47
G|---------------------------------------------------------------------------|
D|---------------------------------------------------------------------------|
A|--0-0-0-0-0-0-0-0-0-0-0-0-0-0-0-0-0-0-0-0-0-0-0-0-0-0-0-0-0-0-0-0----------| x4
E|---------------------------------------------------------------------------|


2:06 - 2:23

G|---------------------------------------------------------------------------|
D|---------------------------------------------------------------------------| x4
A|-0-0-0-0-0-0-0-0-0-0-0-0-0-0-0-0-5-5-5-5-5-5-5-5-5-5-5-5-5-5-5-5-----------|
E|---------------------------------------------------------------------------|

2:24 - 2:59
G|--------------------------------------------------------------------|
D|--------------------------------------------------------------------| \
A|-0--0--0--8--7--5--3--5----0--0--0--5--3--5--3--5-------------------|  \
E|--------------------------------------------------------------------|   \
                                                                          x4
G|--------------------------------------------------------------------|   /
D|--------------------------------------------------------------------|  / 
A|-0--0--0--8--7--5--3--5----5--5--5--3--2--3--2--3-------------------| /
E|--------------------------------------------------------------------|

The rest of the song the bass is almost inaudible to me so I couldn't tab it. 
Also I was going to submit this as an intro tab, but I thought 3 minutes 
into a song would be sufficient enough
Comments