La Dispute - Four Chords & Tabs

 

Four Chords & Tabs

La Dispute Chords & Tabs

Version: 1 Type: Tab 0 ratings
1 star 2 stars 3 stars 4 stars 5 stars
comments

Four Tab

-------------------------------------------------------------------------------
			     Four - La Dispute
-------------------------------------------------------------------------------
Tabbed by: kamdude
Email: triathlete_max@hotmail.com

Tuning: HALF STEP DOWN (E♭-A♭-D♭-G♭-B♭-E♭;)

Intro:

E♭|-------------------------------|
B♭|--------------0----------------|
G♭|----------0-----0---0----------|
D♭|------4-----4-----4-----4------| X 2
A♭|----2---2-------------2--------|
E♭|--0----------------------------|

D|-----------------------------------|  (I accidentally have the letters written
A|----------0---0--------------------|   in full step down tuning here on,but
F|------0-----0---0---0----0---------|   I'll fix it later. the notes are still
C|----4---4---------4---4------------|   how they should be, it's just not DGCFAD
G|--3--------------------------------|   tuning)
D|-----------------------------------|

D|-------------------------------|
A|--------------0----------------|
F|------0---0-----0---0----------|
C|----4---4---4-----4-----4------|
G|--5-------------------5--------|
D|-------------------------------|


Second Guitar: (The single strums. pretty sure it's this order, 
but it doesn't sound bad either way)

D|--0-------0-------0-------0----|
A|--0-------0-------0-------0----|
F|--0-------0-------0-------0----|
C|--4-------4-------4-------4----|
G|--2-------2-------3-------5----|
D|--0-------0-------0-------0----|


Third Guitar:

D|--------------------------------------|
A|--------------------------------------|
F|-10--10--8--8---------10--10--8--8----|
C|---------------10-------------------7-|
G|--------------------------------------|
D|--------------------------------------|

D|--------------------------------------|
A|--------------------------------------|
F|-10--10--8--8---------10--10--8--8/14-|
C|---------------10---------------------|
G|--------------------------------------|
D|--------------------------------------|


Strumming: (it might use the same chords earlier in the song. (224000, 234000, 254000)


[ Tab from: http://www.guitartabs.cc/tabs/l/la_dispute/four_tab.html ]
But I play it this way and it still sounds great:

D|--0-----0-----0-----0---------------------|
A|--5-----0-----1-----3---------------------|
F|--0-----0-----0-----0---------------------|
C|--5-----4-----2-----4---------------------|
G|--3-----5-----3-----5---------------------|
D|--0-----x-----x-----x---------------------|


Next:

D|--------------------------------------|
A|--------------------------------------|
F|--8/10--8------8/10--8----------------|
C|-----------10-----------10--8---------|
G|--------------------------------------|
D|--------------------------------------|


Next @ 1:13 ("the great king banished..")

D|----------------------------------------|
A|----------------------------------------|
F|--10-10-12-12-13-13-15-15-17-17-18-18-20|
C|----------------------------------------|
G|----------------------------------------|
D|----------------------------------------|

D|----------------------------------------|          X2
A|----------------------------------------|
F|-20-20-18-18-17-17-15-15-13---12--------|
C|----------------------------------------|
G|----------------------------------------|
D|----------------------------------------|

or if it's hard to reach the 20th fret on acoustic, play this:

D|--------------------------------------|
A|-6-6-8-8-9-9-10-11-11-13-13-14-14-16--|
F|--------------------------------------|
C|--------------------------------------|
G|--------------------------------------|
D|--------------------------------------|
                                                      X2
D|--------------------------------------|
A|-16-16-14-14-13-13-11-9---8-----------|
F|--------------------------------------|
C|--------------------------------------|
G|--------------------------------------|
D|--------------------------------------|

it ends the same as the intro, and finishes on this chord

D|---0---|
A|---0---|
F|---0---|
C|---4---|
G|---2---|
D|---0---|


this is a little rough for now, I'll fix it later if I have time, I hope you like
playing it, and please rate it.Remember, even though it implies DGCFAD tuning, still have it
in half a step down, I don't have the time to fix it right now
Comments