La Dispute - Bury Your Flame Chords & Tabs

 

Bury Your Flame Chords & Tabs

La Dispute Chords & Tabs

Version: 1 Type: Tab 0 ratings
1 star 2 stars 3 stars 4 stars 5 stars
comments

Bury Your Flame Tab

Okay. So I was very suprised to see no tabs for this song, on the count of its 
complicated guitar parts. This is def. in my top 10 La Dispute songs of all time. 
Playing this song is aloooooot of fun. However, tabbing the song out only by ear 
was extremely difficult. It took me a couple of days for this one, actually. So 
there may be some mistakes. So rate this! AND comment or message me about some 
imperfections, or perfections. Thanks for checking out my tab, and enjoy



Figure 1:

E|-10p8-------------------------10~----|
B|-----10p8----------------------------|
G|---------7h1010-7--7-----------------|
D|-----------------10------------------|
A|-------------------------------------|
D|-------------------------------------|

E|----------------------------------------|
B|--------------------------8-------------|
G|---------10p7--7-----------10p7-10-7----|
D|-----7h10----10---------------------10--|
A|-8h10-----------------------------------|
D|----------------------------------------|

E|---------------------------------------------------------|
B|--------------------------------------------------8b^-6--|
G|---------7~~----------------7x---7------10--7------------|
D|-----7h10---------------7h10------10p7-------10p7--------|
A|-8h10---------------8h10--------------10-----------------|
D|---------------------------------------------------------|

E|------------------------------|
B|---6~----6x-----8-------------|
G|---7~----7x------10p7-10--7---|
D|---7~----7x-------------10----|
A|---5~----5x-------------------|
D|------------------------------|


Figure 2:

E|-------------------------------------|      \
B|-------------------------------------|       \
G|-------------7b----------7-----------|        \
D|---07h10-00----0-7h10-0--10p77------|         \
A|-------------------------------6-----|         
D|-------------------------------------| x3       x2  

E|------------------------------------------|     /
B|------------------------------------------|    /
G|-------------7b-7h10p7h10p7h10------------|   /
D|---07h10-00-------------------10p7-------|  /
A|------------------------------------10p8--|
D|------------------------------------------|



Figure 3:

E|----------------------------------------------|
B|---------------66-----------------------------|
G|---------------77-----------------------------|
D|-000-33-0x-----------0h3p0------3h5p3p0-3-3---|
A|-000-33-0x-----------0h3p0--------------------|
D|-000-33-0x-----------0h3p0--------------------|

E|---------------1313----------------------|
B|---------------1515----------------------|
G|---------------------5h3p00-3------------|
D|-000-33-0x--------------------5-3-5-3-3--|
A|-000-33-0x----------------------------3--|
D|-000-33-0x----------------------------3--|

E|----------------------------------------------|
B|---------------66-----------------------------|
G|---------------77-----------------------------|
D|-000-33-0x-----------0h3p0------3h5p3p0-3-3---|
A|-000-33-0x-----------0h3p0--------------------|
D|-000-33-0x-----------0h3p0--------------------|

E|---------------1313---------------------------|
B|---------------1515---------------------------|
G|---------------------5h3-3--------------------|
D|-000-33-0x--------------5--5-3-5--6-6-53-0~~~-|
A|-000-33-0x------------------------6-6-53-0~~~-|
D|-000-33-0x------------------------6-6-53-0~~~-|




Figure 4:

This section is very easy to play.

However, the amount of repeats is very confusing.

So just play this 16 times.

E|------------------------|
B|------------------------|
G|------------------------|
D|--2-/7-/3-/5-/7-\3-/5---|
A|------------------------|
D|------------------------| x16
[ Tab from: http://www.guitartabs.cc/tabs/l/la_dispute/bury_your_flame_tab.html ]
E|--------------------------|
B|------6--6-6-------888----|
G|------7--7-7-------999----|
D|-0000--------0000---------|
A|-0000--------0000---------|
D|-0000--------0000---------| x4



Figure 5 (Play twice):

E|-------------------------------------|
B|-------------------------------------|              
G|-------------7b----------7-----------|                   
D|---07h10-00----0-7h10-0--10p77------|                         
A|-------------------------------6-----|                       
D|-------------------------------------| x2                   
                                                               
E|--------------------------------------------------------|   
B|--8b-\6b666---------------------------------------------|  
G|-----------7-5-7----------7b-7h10p7h10p7h10-------------| 
D|-----------------07h10-00------------------10p7--------|
A|------------------------------------------------10p8----|
D|--------------------------------------------------------| 




Figure 6:

E|----------------------------------|
B|----------------------------------|
G|-----------(141414-1717-14)-------|
D|-000-33-0x(-x-x-x--x-x--x)-------|
A|-000-33-0x-(121212/1515\12)-------|
D|-000-33-0x------------------------| x2

E|-------------|
B|-------------|
G|--222-55-2---|
D|--000-33-0---|
A|--000-33-0---|
D|--000-33-0---| x3

E|---------------|
B|---------------|
G|--5-55-5-55-5--|
D|--3-33-3-33-3--|
A|--3-33-3-33-3--|
D|--3-33-3-33-3--|



Figure 7:

E|-----------------------------|
B|-----------------------------|
G|-----------------------------|
D|-55555555-5xx-5xx-5xx-5xx----|
A|-55555555-5xx-5xx-5xx-5xx----|
D|-55555555-5xx-5xx-5xx-5xx----|

E|----------------------|
B|----------------------|
G|----------------------|
D|----------------------|
A|-----------5p0-6p0----|
D|-0-3h5p3-0------------| x2

E|----------------------|
B|----------------------|
G|----------------------|
D|-55555555-11111111----|
A|-55555555-11111111----|
D|-55555555-11111111----|

E|----------------------|
B|----------------------|
G|----------------------|
D|----------------------|
A|-----------5p0-6p0----|
D|-0-3h5p3-0------------| x2

E|-----------------------------|
B|-----------------------------|
G|--12-12-12-12-15-15-15-15----|
D|---x--x--x--x--x--x--x--x----|
A|--10-10-10-10-13-13-13-13----|
D|-----------------------------|

E|----------------------|
B|----------------------|
G|----------------------|
D|----------------------|
A|-----------5p0-6p0----|
D|-0-3h5p3-0------------| x2

E|------------------------------|
B|------------------------------|
G|--1212121212121212-10101010---|
D|---x-x-x-x-x-x-x-x-xxxxxxxx---|
A|--1010101010101010\88888888---|
D|------------------------------|

E|----------------------|
B|----------------------|
G|----------------------|
D|----------------------|
A|-----------5p0-6p0----|
D|-0-3h5p3-0------------| x4



Figure 8:

E|-----------------------|
B|-----------------------|
G|-----------------------|
D|--0-0-0~---3-3-3-3~----|
A|--0-0-0~---3-3-3-3~----|
D|--0-0-0~---3-3-3-3~----|

E|---------------------------|
B|---------------------------|
G|----------------------12---|
D|--0-0-0~---3-3-3-5~----x---|
A|--0-0-0~---3-3-3-5~-//10b--|
D|--0-0-0~---3-3-3/5~--------|

E|----------------------------|
B|----------------------------|
G|---111111~--14-14-14-14~----|
D|---x-x-x~----x--x--x--x~----|
A|---9-9-9~---12-12-12-12~----|
D|----------------------------|

E|--------------------------|
B|--------------------------|
G|---111111~--101010-9~-----|
D|---x-x-x~---x-x-x--x~--x--|
A|---9-9-9~---8-8-8--7~--x--|
D|-----------------------x--|


Figure 9:

Ending:

(repeats and repeats until the song fades out)

E|-----------------|
B|-----------------|
G|-----7-----------|
D|--0--x--3-5-53---|
A|--0--5--3-5-53---|
D|--0-----3-5-53---| x3

E|---------------|
B|---------------|
G|---7--7--6~~---|
D|---x--x--7~~---|
A|---5--5--4~~---|
D|---------------|
Comments