La Dispute - Andria Chords & Tabs

 

Andria Chords & Tabs

La Dispute Chords & Tabs

Version: 3 Type: Tab 0 ratings
1 star 2 stars 3 stars 4 stars 5 stars
comments

Andria Tab

   
Artist: La Dispute
Song: Andria
Album: Somewhere At The Bottom Of The River Between Vega And Altair
Tabbed by: gustavoaraujo999@hotmail.com

== GUITAR ONE ==
 
(00:00 - 00:46)
e|-17~---22~---10b12~-------|------|---------------------|
B|---------------------9~---|------|-10~--10~--10~--10~--|
G|--------------------------|------|---------------------|
D|--------------------------|-[x2]-|---------------------|
A|--------------------------|------|---------------------|
D|--------------------------|------|---------------------|

(00:47 - 01:13)
e|----------10~/12---8~------|------|-------|
B|-10~--10~--------------9~--|------|-9b10--|
G|---------------------------|------|-------|
D|---------------------------|-[x2]-|-------|
A|---------------------------|------|-------|
D|---------------------------|------|-------|

(01:19 - 01:43)
e|---------------------------------------|-----------------------|---------------------------|
B|--9b10~--9b10~--10br9------------------|-----------------------|------------------10~------|
G|----------------------7/9~---9/7-------|-5/9----9--9--8--7--7~-|---------------------------|
D|---------------------------------10/7~-|-----------------------|--10/7---5/7---------------|
A|---------------------------------------|-----------------------|---------------10----------|
D|---------------------------------------|-----------------------|---------------------------|

(01:51 - 02:39)
e|--------------------------------------------|----------------------------------------------|
B|--------------------------------------------|----------------------------------------------|
G|-5/7--------------------5/7-----------------|-5/7-------------------5/7--------------12\\--|
D|-----7---------7/10---------7---------7/10--|-----7---------7/10--------7---------7--12\\--|
A|-------7-10/12----------------7-10/12-------|-------7-10/12---------------7-10/12----12\\--|
D|--------------------------------------------|----------------------------------------------|

e|--------------------------------------------|----------------------------------------------|
B|--------------------------------------------|----------------------------------------------|
G|-5/7--------------------5/7-----------------|-5/7-------------------5/7--------------12\\--|
D|-----7---------7/10---------7---------7/14--|-----7---------7/10--------7---------7--12\\--|
A|-------7-10/12----------------7-10/12-------|-------7-10/12---------------7-10/12----12\\--|
D|--------------------------------------------|----------------------------------------------|

e|--------------------------------------------|--------------------------------------------|
B|--------------------------------------------|--------------------------------------------|
G|-5/7--------------------5/7-----------------|-5/7--------------------5/7-----------------|
D|-----7---------7/10---------7---------7/14--|-----7---------7/10---------7---------7/14--|
A|-------7-10/12----------------7-10/12-------|-------7-10/12----------------7-10/12-------|
D|--------------------------------------------|--------------------------------------------|

e|--------------------------------------------|
B|--------------------------------------------|
G|-5/7--------------------5/7-----------------|
D|-----7---------7/10---------7---------7/14--|
A|-------7-10/12----------------7-10/12-------|
D|--------------------------------------------|

(02:37 - 02:42)
e|-----------------|
B|-----------------|
G|--10--9----------|
D|----------10--9--|
A|-----------------|
D|-----------------|

(02:43 - 02:55)
e|---------------------------------------|------------------|------|
B|---------------------------------------|------------------|------|
G|---------------------------------------|--10--9-----------|------|
D|-------------10\9---------------10\9---|---------10--9----|-[x2]-|
A|-10/12-12-10--------10/12-12-10--------|------------------|------|
D|---------------------------------------|------------------|------|

(02:55 - 03:02)
e|----------------------------------------------|--------|
B|----------------------------------------------|--------|
G|----------------------------------------------|--------|
D|----------------10\9-------------------10\9---|--[x2]--|
A|-10-12-10-12-10---------10-12-10-12-10--------|--------|
D|----------------------------------------------|--------|

(03:03 - 03:16)
e|---------------------------------------|--------|
B|---------------------------------------|--------|
G|---------------------------------------|--------|
D|-------------10\9---------------10\9---|--[x4]--|
A|-10/12-12-10--------10/12-12-10--------|--------|
D|---------------------------------------|--------|

(03:16 - 04:11)
e|---------------------------------------|---------------| \
B|---------------------------------------|---------------| |
G|---------------------------------------|---------------| |
D|-------------10\9---------------10\9---|-12-12--14-14--| |
A|-10/12-12-10--------10/12-12-10--------|---------------| |
D|---------------------------------------|---------------| |
                                                           | [x4]
e|---------------------------------------|---------------| |
B|---------------------------------------|---------------| |
G|---------------------------------------|---------------| |
D|-------------10\9---------------10\9---|-12-12--14-17--| |
A|-10/12-12-10--------10/12-12-10--------|---------------| |
D|---------------------------------------|---------------| /

End on
e|-----|
B|-----|
G|-----|
D|-19~-|
A|-----|
D|-----|


== GUITAR TWO ==

(00:00 - 0:38)
e|-------------------------------|--------7---------------------------------------|
B|----------5h6p5----------------|-----10--10-----------5h6p5------------------0--|
G|---9-----------------5-------4-|----9--------9--------------------5-------4-----|
D|---7-----------------3-------2-|---7-----------10-----------------3-------2-----|
A|-------------------------------|------------------------------------------------|
D|-7----7\5--------5\3----3\2----|-7------------------7\5-------5\3----3\2--------|
[ Tab from: http://www.guitartabs.cc/tabs/l/la_dispute/andria_tab_ver_3.html ]
(0:40 - 0:48)
e|-------------------------------|
B|-------------------------------|
G|-------------------------------|
D|-------------------------------|
A|-------------------------------|
D|-2---2---2--2--7--7--7-7-7-7---|

(0:48 - 1:12)
e|--------------------------------------0-----0---0------1-----1---1-----------|
B|-----5-----5---5----------3-----3-----1-----1---1------1-----1---1-----------|
G|-----5-----5---5------4-----4---------2-----2---2------2-----2---2-----------|
D|-7-7-7-7-7-7-7-7--5-5---5-----5---3-3-3-3-3-3-3-3--3-3-3-3-3-3-3-3-----------|
A|-----------------------------------------------------------------------------|
D|-----------------------------------------------------------------------------|

e|-------------------------------------------------------------------------------|
B|-----5-----5---5----------3-----3--------8--------8-----8------8-----7---7-----|
G|-----5-----5---5------4-----4------------9--------9-----9------9-----8---8-----|
D|-7-7-7-7-7-7-7-7--5-5---5-----5----10-10-10-10-10-10-10-10-9-9-9-9-9-9-9-9-----|
A|-------------------------------------------------------------------------------|
D|-------------------------------------------------------------------------------|

e|--------------------------------------0-----0---0------1-----1---1-----------|
B|-----5-----5---5----------3-----3-----1-----1---1------1-----1---1-----------|
G|-----5-----5---5------4-----4---------2-----2---2------2-----2---2-----------|
D|-7-7-7-7-7-7-7-7--5-5---5-----5---3-3-3-3-3-3-3-3--3-3-3-3-3-3-3-3-----------|
A|-----------------------------------------------------------------------------|
D|-----------------------------------------------------------------------------|

e|-------------------------------------------------------------------------------|
B|-----5-----5---5----------3-----3--------8--------8-----8------8-----7---7-----|
G|-----5-----5---5------4-----4------------9--------9-----9------9-----8---8-----|
D|-7-7-7-7-7-7-7-7--5-5---5-----5----10-10-10-10-10-10-10-10-9-9-9-9-9-9-9-9-----|
A|-------------------------------------------------------------------------------|
D|-------------------------------------------------------------------------------|

(1:13 - 1:44)
e|---------------------------------------------------------------|
B|---------------------------------------------------------------|
G|---------------------------------------------------------------|
D|---------------------------------------------------------------|
A|---------------------------------------------------------------|
D|-7-7\--2h5/7-7\-2h5/7-7\--2h5/7-7\-2h5/7-7\--------------------|

e|---5---------5--------5---------5------------------------------|
B|---5---------5--------5---------5------------------------------|
G|---5---------5--------5---------5--7-7-777-7--7-5--------------|
D|---5---------5--------5---------5--7-7-777-7--7-5--7-7-----7-7-|
A|---7---------7--------7---------7--5-5-555-5--5-3--7-7-----7-7-|
D|-7-7\--2h5/7-7--2h5/7-7---2h5/7-7\-----------------7-7-2h5/7-7-|

e|-----------------------------|---------------------------------|
B|-----------------------------|---------------------------------|
G|-----------------------------|---------------------------------|
D|-7-5-2-2-222-2--2-1-0-0-0-0--|-7---7-7---7--7---7--222--7~-----|
A|-7-5-2-2-222-2--2-1-0-0-0-0--|-7---7-7---7--7---7--222--7~-----|
D|-7-5-2-2-222-2--2-1-0-0-0-0--|-7xxx7-7xxx7--7xxx7-x222-/7~-----|

(1:56 - 2:07)
e|-----------------------|
B|-----------------------|
G|-----------------------|
D|-7-7~--7\---7-7--7\----|
A|-7-7~--7\---7-7--7\----|
D|-7-7~--7\---7-7--7\----|

(2:10 - 2:38)
e|------------------------------|--------------------------------|
B|-----------b------------------|----------b---------8-5---------|
G|-----------a---5/7------5-----|----------a---5/7--------5h7----|
D|-7--5-7\---s---5/7--5-7---7-5-|-7--5/7---s---5/7------------5--|
A|-7--5-7\---s---3/5------------|-7--5/7---s---3/5---------------|
D|-7-x5/7\----------------------|-7-x5/7-------------------------|

e|------------------------------|-----------------------------|
B|-----------b------------------|-----------------------------|
G|-----------a---5/7------------|---------5-7-------5/7---777-|
D|-7--5-7\---s---5/7------------|-7--5/7------5-----5/7---777-|
A|-7--5-7\---s---3/5------------|-7--5/7--------7---3/5---555-|
D|-7-x5/7\----------------------|-7-x5/7----------------------|

(2:39)
e|--------------------|
B|--------------------|
G|--------------------|
D|-101010101010999999-|
A|-101010101010999999-|
D|-101010101010999999-|

e|---------------------------------------------------------------|
B|---------------------------------------------------------------|
G|---------------------------------------------------------------|
D|-7777777777777-101010101010--555555555-------------------------|
A|-7777777777777-101010101010--555555555-------------------------|
D|-7777777777777-101010101010--555555555-------------------------|
 
e|---------------------------------------------------------------|
B|---------------------------------------------------------------|
G|---------------------------------------------------------------|
D|-7777777777777-3333333333333-555555555-------------------------|
A|-7777777777777-3333333333333-555555555-------------------------|
D|-7777777777777-3333333333333-555555555-------------------------|

e|---------------------------------------------------------------|
B|---------------------------------------------------------------|
G|---------------------------------------------------------------|
D|-777777777777777777777777777777777777777-----------------------|
A|-777777777777777777777777777777777777777-----------------------|
D|-777777777777777777777777777777777777777-----------------------|

(3:17 - 4:12)
e|--------------------------------------------------------------------------|
B|------------------------------------10------------------------------------|
G|--------------9-------------------9----12-11-9------------9----------9----|
D|-------10-------10----10-------10--------------10-------------------------| [x8]
A|-12-12----12-------12-------12---------------------12-12---12--12-12---12-|
D|--------------------------------------------------------------------------|

Comments