La Dispute - Andria Chords & Tabs

 

Andria Chords & Tabs

La Dispute Chords & Tabs

Version: 1 Type: Bass Tab 0 ratings
1 star 2 stars 3 stars 4 stars 5 stars
comments

Andria Bass Tab

   
-------------------------------------------------------------------------------
                             Andria - La Dispute
-------------------------------------------------------------------------------
Tabbed by: Ian Aberbach
Bassist:  Adam Vass

Hey guys this is my 2nd tab
Tbh this song was fairly easy to figure  out, but like pretty much all
La Dispute songs the bass is really fun to play.  I'm pretty sure this is 99%
accurate.

Tuning:  Standard EADG

(Intro)(0:00-0:42)   That's a twelve and ten.  Also, ik this part is played on
guitar, but I like how it sounds on the bass.
G|---------------------------------------------------------------------------|x2
D|---------------------------------------------------------------------------|
A|---------------------------------------------------------------------------|
E|-12---12/--10---10/--9---9---99912-----------------------------------------|

(Pre-Verse 1)(0:45-0:48)
G|---------------------------------------------------------------------------|x2
D|---------------------------------------------------------------------------|
A|---------------------------------------------------------------------------|
E|-5-5-5-5-------------------------------------------------------------------|

(Verse 1)(0:48-1:13) That's 10 for each note ik they are clumped together so 
it's hard to count them.
G|---------------------------------------------------------------------------|x4
D|---------------------------------------------------------------------------|
A|---------------------------------------------------------------------------|
E|-5555555555-3333333333-1111111111-0000000000-------------------------------|

(Verse 2)(1:19-1:50)
G|----------------------------------------------------------------------------
D|--------------{7h10--1212}x2--------------9h12--1414-1414-13-1212-1212------
A|{7h10--1212}x4--------------{7h10--1212}x2----------------------------------
E|----------------------------------------------------------------------------
[ Tab from: http://www.guitartabs.cc/tabs/l/la_dispute/andria_btab.html ]
  ---------------------------------------------------------------------------|
  ---------------------------------------------------------------------------|
  -7h10--1212--7h10--1212--7h10-1212~~~~~~~~---------------------------------|
  ---------------------------------------------------------------------------|
(Pre-Verse 2)(1:57-2:10)
G|---------------------------------------------------------------------------|x2
D|---------------------------------------------------------------------------|
A|---------------------------------------------------------------------------|
E|-55~~~~~~~5----------------------------------------------------------------|

(...how the distance tricked us)(2:12-2:14)
G|---------------------------------------------------------------------------|
D|---------------------------------------------------------------------------|
A|-7-10-12-10----------------------------------------------------------------|
E|---------------------------------------------------------------------------|

(...how we held so strong to this)(2:18-2:20)
G|---------------------------------------------------------------------------|
D|--7------------------------------------------------------------------------|
A|-7-10-8-7------------------------------------------------------------------|
E|---------------------------------------------------------------------------|

(...the silence)(2:25-2:27)  If you can't tell you play 19-12
G|---------------------------------------------------------------------------|
D|---------------------------------------------------------------------------|
A|-1918171615141312----------------------------------------------------------|

(2:38-3:01)
E|---------------------------------------------------------------------------|x4
G|---------------------------------------------------------------------------|
D|---------------------------------------------------------------------------|
A|---------------------------------------------------------------------------|
E|-5555555555-3333333333-1111111111-0000000000-------------------------------|

(Pre-Verse 3)(3:08-3:15)
G|---------------------------------------------------------------------------|x2
D|---------------------------------------------------------------------------|
A|---------------------------------------------------------------------------|
E|-55-55---------------------------------------------------------------------|

(Last verse)(3:15-4:10) {Play the 5th fret the last time you play the riff at
4:10.
G|---------------------------------------------------------------------------|x8
D|---------------------------------------------------------------------------|
A|---------------------------------------------------------------------------|
E|-55-55-88-88\10---{5~~~~~~~~~~}--------------------------------------------|

| /  slide up
| \  slide down
| h  hammer-on
| p  pull-off
| ~  vibrato
| +  harmonic
| x  Mute note
===============================================================================
Comments