L7 - Pretend Were Dead Chords & Tabs

 

Pretend Were Dead Chords & Tabs

L7 Chords & Tabs

Version: 3 Type: Bass Tab

Pretend Were Dead Bass Tab

verse
G|------------------------------|
D|------------------------------|  
A|-------------------4----------|   
E|-7-7-x-x-0-0-x-x-5---5-2--0-2-|   

chorus
G|------------------------------|
D|------------------------------|
A|-------------------4----------|
E|-7-7-7-7-0-0-0-0-5---5-2--0-2-|

verse
G|------------------------------|
D|------------------------------|  
A|-------------------4----------|   
E|-7-7-x-x-0-0-x-x-5---5-2--0-2-|   
[ Tab from: http://www.guitartabs.cc/tabs/l/l7/pretend_were_dead_btab_ver_3.html ]
chorus
G|------------------------------|
D|------------------------------|
A|-------------------4----------|
E|-7-7-7-7-0-0-0-0-5---5-2--0-2-|

bridge
G|-------------------------------------------|
D|----------------------------------9-6-7-4--|
A|-------------------4---------9-6-7---------|
E|2~~~-2/7-2/7-2/7-0-5---2-0-2-7-------------|

chorus
G|------------------------------|
D|------------------------------|
A|-------------------4----------|
E|-7-7-7-7-0-0-0-0-5---5-2--0-2-|