L7 - One More Thing Chords & Tabs

 

One More Thing Chords & Tabs

L7 Chords & Tabs

Version: 1 Type: Tab 0 ratings
1 star 2 stars 3 stars 4 stars 5 stars
comments

One More Thing Tab

   
----------------------------------------------------------------------------
                            ONE MORE THING - L7
----------------------------------------------------------------------------

Drop all strings down by half a tone.

INTRO (drums for 2 bars)
eb|--------|--------|
Bb|--------|--------|
Gb|--------|--------|
Db|\\\\\\\\|\\\\\\\\|  (Scrape your plectrum down from the highest fret
Ab|\\\\\\\\|\\\\\\\\|             to the lowest over 2 bars)
Eb|--------|--------|

VERSE (Guitar 1)          
eb|--------|--------|     
Bb|--------|--------|     
Gb|----4444|--------|     
Db|4-4-4444|7-7~----|     
Ab|4-4-2222|7-7~----|     
Eb|2-2-----|5-5~----|     
      
VERSE (Guitar 2a)
eb|---------------|-----------|------------|
Bb|---------------|-----------|------------|
Gb|9-11-9-11-9-11-|--2---2-2--|------2-----|
Db|---------------|4---4-----4|2-4~-----4~-|
Ab|---------------|-----------|------------|
Eb|---------------|-----------|------------|

  (Guitar 2b)
eb|--------------------|------------|-----------------|
Bb|--------------------|------------|-----------------|
Gb|9-11-9-11-9-11-9-11\|------------|-----------------|
Db|--------------------|------------|-----------------|(This ghost note is
Ab|--------------------|------------|-----------------|the first part of the
Eb|--------------------|5-0-2--5-0-4|5-0-2--10\5-3-(2)|VERSE guitar 1 part) 
[ Tab from: http://www.guitartabs.cc/tabs/l/l7/one_more_thing_tab.html ]
CHORUS
eb|--------|---------------|
Bb|--------|---------------|   x4 (I think!?)
Gb|4-4-7777|---------------|
Db|4-4-7777|7-7-7-5-7-7-9-9|
Ab|2-2-5555|7-7-7-5-7-7-9-9|
Eb|--------|5-5-5-3-5-5-7-7|

VERSE (Guitar 1 and Guitar 2a)
CHORUS

Solo
eb|---------------|-----------|------------|
Bb|---------------|-----------|------------|
Gb|9-11-9-11-9-11-|--2---2-2--|------2-----|
Db|---------------|4---4-----4|2-4~-----4/-|
Ab|---------------|-----------|------------|
Eb|---------------|-----------|------------|

eb|------------------------|-----------|
Bb|12----------------------|-10-10-10~-|
Gb|--11b--4-2---------2----|-11-11-11~-|
Db|-----------4-4-2-4---4~-|-----------|
Ab|------------------------|-----------|
Eb|------------------------|-----------|

VERSE
CHORUS

CHORUS SOLO 
eb|----------|-------------------| 
Bb|-10-10-10-|-12-12-12----------| 
Gb|-11-11-11-|----------11~--4-2-| 
Db|----------|-------------------| 
Ab|----------|-------------------| 
Eb|----------|-------------------| 

eb|-----------------|---------------------------------|
Bb|-----------------|10-10----------------------------|
Gb|-4-2-4-5b--4-2---|11-11-11-9-----------------------|
Db|---------------4-|-----------11-9----9----9----9-9-|
Ab|-----------------|----------------11---11---11-----|
Eb|-----------------|---------------------------------|

OUTRO
eb|--------|--------|
Bb|--------|--------|
Gb|--------|--------|
Db|\\\\\\\\|\\\\\\\\|
Ab|\\\\\\\\|\\\\\\\\|
Eb|--------|--------|

There's a 3rd guitar part over the verse and chorus which I haven't added because
I'm not 100% on it but feel free to add to this tab!

| / slide up 
| \ slide down
| h hammer-on
| p pull-off 
| b bend note
|( )ghost note
| ~ vibrato 
| + harmonic 
| x Mute note
Comments