L7 - Mantra Down Chords & Tabs

 

Mantra Down Chords & Tabs

L7 Chords & Tabs

Version: 1 Type: Tab 0 ratings
1 star 2 stars 3 stars 4 stars 5 stars
comments

Mantra Down Tab

   
		          MANTRA DOWN
			    L7
			From: Slap Happy




[ Tab from: http://www.guitartabs.cc/tabs/l/l7/mantra_down_tab.html ]
Main riff
Intro: fast
E-------------------------------------------------
B-------------------------------------------------
G-------------------------------------------------
D-------------------------------------------------
A-6-9-9-9-9-9-6-9-9-9-9-9-6-5-5-5-5-5-6-5-5-5-5-5-
E-8/7-7-7-7-7-8/7-7-7-7-7-43-3-3-3-3-43-3-3-3-3-


E----------------
B----------------
G----------------
D-2-2-2------------
A-2-2-2------------
E-O-O-O--O-2-O-2-O-2-x4 

G-----------------
D-----------------
A-3-3-4-4-5-5-6-6-
E-1-1-2-2-3-3-4-4-

That's the whole song
Comments