L7 - Freeway Chords & Tabs

 

Freeway Chords & Tabs

L7 Chords & Tabs

Version: 1 Type: Bass Tab 0 ratings
1 star 2 stars 3 stars 4 stars 5 stars
comments

Freeway Bass Tab

   
L7
Freeway
>From "Slap Happy"
Send corrections to vow32@yahoo.com

fig A
a:-------7-----7
e:---555---555--

fig B
e:--0-1-2--555--0-1-2--

fig C
a:----7---4-5-7
e:-555---------
[ Tab from: http://www.guitartabs.cc/tabs/l/l7/freeway_btab.html ]
fig D
a:-----7-----5555
e:-555---555-----

fig E
a:-----9----9
e:-777---777-

fig F
a:-----6-7-9
e:-777------

I'm not sure if that's 100% correct, but it's the best
I could do!

Comments