L7 - Freak Magnet Chords & Tabs

 

Freak Magnet Chords & Tabs

L7 Chords & Tabs

Version: 3 Type: Tab 0 ratings
1 star 2 stars 3 stars 4 stars 5 stars
comments

Freak Magnet Tab

Freak Magnet by L7

THIS SONG SHOULD BE PLAYED WITH STANDARD TUNING. THE OTHER TABS AROUND STATE IT IS A
DROPPED D TUNING BUT THEY ARE TOTALLY WRONG. TRY THIS INSTEAD!!!


Intro
e|--------------------------------------------------------|
B|--------------------------------------------------------|
G|--------------------------------------------------------|
D|--------------------------------------------------------|
A|---2--2-5-2--2-8-7-5/7-2--2-5-2--2-8-12-12-12-12-2------|
E|---0--0-3-0--0-6-5-3/5-0--0-3-0--0-6-10-10-10-10-0------|

e|--------------------------------------------------------|
B|--------------------------------------------------------|
G|--------------------------------------------------------|
D|--------------------------------------------------------|
A|---2--2-5-2--2-8-7-5/7-2--2-5-2--2-8~~~-----------------|
E|---0--0-3-0--0-6-5-3/5-0--0-3-0--0-6~~~-----------------|

Verse 1
e|--------------------------------------------------------|
B|--------------------------------------------------------|
G|--------------------------------------------------------|
D|--------------------------------------------------------|
A|---8-8-8-7-7-7-7-7-7-7-7-7-7----------------------------|
E|---6-6-6-5-5-5-5-5-5-5-5-5-5----------------------------|
[ Tab from: http://www.guitartabs.cc/tabs/l/l7/freak_magnet_tab_ver_3.html ]
Verse 2
e|--------------------------------------------------------|
B|--------------------------------------------------------|
G|--------------------------------------------------------|
D|--------------------------------------------------------|
A|---10-10-10-9-9-9-9-9-9-9-9-9-9-------------------------|
E|---8--8--8--7-7-7-7-7-7-7-7-7-7-------------------------|

Verse 3
e|--------------------------------------------------------|
B|--------------------------------------------------------|
G|--------------------------------------------------------|
D|--------------------------------------------------------|
A|---9-9-9-7-7-7-7-7-7-7-7-7-7----------------------------|
E|---7-7-7-5-5-5-5-5-5-5-5-5-5----------------------------|

Chorus
e|--------------------------------------------------------|
B|--------------------------------------------------------|
G|--------------------------------------------------------|
D|--------------------------------------------------------|
A|---7-7-7-5-5-5-5-5-5-5-5-5-5----------------------------|
E|---5-5-5-3-3-3-3-3-3-3-3-3-3----------------------------|

Ending
e|--------------------------------------------------------|
B|--------------------------------------------------------|
G|--------------------------------------------------------|
D|--------------------------------------------------------|
A|---2--2-5-2--2-8-7-5/7-2--2-5-2--2-8-12-12-12-12-2------|
E|---0--0-3-0--0-6-5-3/5-0--0-3-0--0-6-10-10-10-10-0------|

e|--------------------------------------------------------|
B|--------------------------------------------------------|
G|--------------------------------------------------------|
D|--------------------------------------------------------|
A|---2--2-5-2--2-8-7-5/7-2--2-5-2--2-8~~5-2---------------|
E|---0--0-3-0--0-6-5-3/5-0--0-3-0--0-6~~3-0---------------|

*Solo: G string, do it yourself, I don't care about solos.
Comments