L7 - Freak Magnet Chords & Tabs

 

Freak Magnet Chords & Tabs

L7 Chords & Tabs

Version: 2 Type: Tab 0 ratings
1 star 2 stars 3 stars 4 stars 5 stars
comments

Freak Magnet Tab

L7 - Freak Magnet
"Bricks Are Heavy"
[ Tab from: http://www.guitartabs.cc/tabs/l/l7/freak_magnet_tab_ver_2.html ]
usualy played in drop D, can be played in standard but
if u want to get it perfect... drop. 
 
[Intro]
---------------------------------------------------
---------------------------------------------------
---------------------------------------------------
---------------------------------------------------
-2-----2-2-/5--2------2-/-8---7---5---7-\--2-------
-2-----2-2-/5--2------2-/-8---7---5---7-\--2-------
 
[Verse]
---------|-----------------------------|-------------
---------|-----------------------------|-------------
---------|-----------------------------|-------------
---------|-----------------------------|-------------
-0-8-0-0-|-8-7-7-7-7-7-7-7-7-7-7-8-0-0-|-------------
-0-8-0-0-|-8-7-7-7-7-7-7-7-7-7-7-8-0-0-|-------------
  
---------|---------------------------------|----------
---------|---------------------------------|----------
---------|.-------------------------------.|----------
---------|.-------------------------------.|----------
-8-0-0-8-|-9-9-9-9-9-9-9-9-9-9-9-10-0-0-10-|----------
-8-0-0-8-|-9-9-9-9-9-9-9-9-9-9-9-10-0-0-10-|----------
 
[Chorus] freak magnet... jerk appeal...
---------------------------------------------------
---------------------------------------------------
---------------------------------------------------
---------------------------------------------------
-8-8-8-5-5-5-5-5-5-5-5-5-5-0-0-0-5-5-5-5-5-5-5-5-5-
-8-8-8-5-5-5-5-5-5-5-5-5-5-0-0-0-5-5-5-5-5-5-5-5-5-
 
---------------------------------------------------
---------------------------------------------------
---------------------------------------------------
---------------------------------------------------
-8-7-8-5-5-5-5-5-5-5-5-5-5-5-0-0-0-5---------------
-8-7-8-5-5-5-5-5-5-5-5-5-5-5-0-0-0-5---------------
 
for the small solo, play around with G... they always make a habit of playing
a different solo when they play this live.

comments, corrections, hate mail or death threats to - 
clangerfreak@hotmail.com

~*jinxx*~
Comments