L7 - Broomstick Chords & Tabs

 

Broomstick Chords & Tabs

L7 Chords & Tabs

Version: 1 Type: Bass Tab 0 ratings
1 star 2 stars 3 stars 4 stars 5 stars
comments

Broomstick Bass Tab

-------------------------------------------------------------------------------
			     Broomstick - L7
-------------------------------------------------------------------------------

Tabbed By : Ashleigh Brennan
e-mail: riotgrrrl2004@hotmail.com

Tuning: Normal

Whole Song

G|------------------------------------|
D|------------------------------------|
A|--------------2-333-2-3-2-----------|
E|--0-0-0-0-0-0-----------------------|
[ Tab from: http://www.guitartabs.cc/tabs/l/l7/broomstick_btab.html ]
But then there's another bit that goes like this (you'll know when to use this part...). 
not sure on this off the top of my head, but if it's not right I'll fix it some other time...

G|-------------------------------------|
D|-------------------------------------|
A|--------------7-999-7-9--------------|
E|--6-6-6-6-6-6------------------------|

I hope that's right! This is my first tab so be nice! Also, I'd really appreciate it if 
guys could rate this, and I was wondering if anyone has any good L7 tabs from "Smell The 
or the "L7" E.P.? I can't find them anywhere! Email me if you have any corrections. Thanks! (^_^)
Comments