L7 - Andres Chords & Tabs

 

Andres Chords & Tabs

L7 Chords & Tabs

Version: 1 Type: Tab 0 ratings
1 star 2 stars 3 stars 4 stars 5 stars
comments

Andres Tab

   
hey, well here is a really cool song by l7, my band are atempting to play it right now and thats how i came across it. it's really fun to play so enjoy

verse

main riff:guitar 1

e-------------------------
b-------------------------
g-------------------------
D--2-2--2-2-2-2--5-4-5-4--
A--2-2--2-2-2-2--5-4-5-4--
E----------------3-2-3-2--

guitar 2

e-777777777-8888-777777-77-88-77-88-
b-----------------------------------
g-----------------------------------
d-----------------------------------
a-----------------------------------
e-----------------------------------


CHORUS
[ Tab from: http://www.guitartabs.cc/tabs/l/l7/andres_tab.html ]
e-------------------------------------
b--------------------------------------
g--------------------------------------
d-333333333-----777777777------00-----
a-333333333-----777777777------99-------
e-111111111-----555555555------77----232



verse

main riff:guitar 1

e-------------------------
b-------------------------
g-------------------------
D--2-2--2-2-2-2--5-4-5-4--
A--2-2--2-2-2-2--5-4-5-4--
E----------------3-2-3-2--

guitar 2

e-777777777-8888-777777-77-88-77-88-
b-----------------------------------
g-----------------------------------
d-----------------------------------
a-----------------------------------
e-----------------------------------
Comments