Kyuss - Supa Scoopa And Mighty Scoop Chords & Tabs

 

Supa Scoopa And Mighty Scoop Chords & Tabs

Kyuss Chords & Tabs

Version: 1 Type: Tab 0 ratings
1 star 2 stars 3 stars 4 stars 5 stars
comments

Supa Scoopa And Mighty Scoop Tab

   
"Supa Scoopa and Mighty Scoop" by Kyuss
from the Album "Sky Valley", 1994

transcribed by Auzman 
  additions by ded bob 

tuning C

x palm mute
' bend
h hammer-on
p pull-off
~ vibrato

Intro:     x2            x2                 x2
-------------|-------------|------------------
-------------|-------------|------------------
-------------|-------------|------------------
-------------|-7---7-7-7-7-|-10---10-10-10-10-
-0---0-0-0-0-|-------------|------------------
-------------|-------------|------------------
     x x x x       x x x x         x  x  x  x  

--------------------------------
--------------------------------
--------------------------------
-12---12-12-12-12---9---9-9-9-9-
--------------------------------
--------------------------------
       x  x  x  x       x x x x 


Verse Riff
(strum each chord repeatedly)
-------------------------------
-------------------------------
-------------------------------
-7---------10-------12----9----
-7---------10-------12----9----
-5----------8-------10----7----

[ Tab from: http://www.guitartabs.cc/tabs/k/kyuss/supa_scoopa_and_mighty_scoop_tab.html ]
Chorus Riff
----------------------------------------------
----------------------------------------------
----------------------------------------------
-7---7-7-7-7-7---7-7-7-7-5----------5----3--5-
-7---7-7-7-7-7---7-7-7-7---3--3--x----0-------
-5---5-5-5-5-5---5-5-5-5----------------------

----------------------------------------------
----------------------------------------------
--------7h9--9~----9--------------------------
-------------------------5----------5----3--5-
-0---0---------------------3--3--x----0-------
----------------------------------------------


fast main riff                  x3
----------------------------------|----------------------------------
----------------------------------|----------------------------------
-----------------10h12-12---------|-----------------10h12-12-----12--
--------------10----------10--10--|--------------10----------10------
-0---0--10h12---------------------|-0---0--10h12---------------------
----------------------------------|----------------------------------

half-time riff                      (alternate)
-----------------------------------|-----------------------------------
--------------------10-------------|---------------------10-----10-----
-----------------12----12'---10----|-----------------12'----12'----12'-
--------------10----------------12-|--------------10-------------------
-0---0--10h12----------------------|-0---0--10h12----------------------
-----------------------------------|-----------------------------------
Comments