Kyuss - Stage Iii Chords & Tabs

 

Stage Iii Chords & Tabs

Kyuss Chords & Tabs

Version: 1 Type: Tab 0 ratings
1 star 2 stars 3 stars 4 stars 5 stars
comments

Stage Iii Tab

Song:	Stage III
Artist:	Kyuss
Album:	Wretch

TABBED BY SPACEDOG


standard tuning : couldnt be arsed tuning down

o	open (not palm muted)
^ 	bend
~ 	hold
h 	hammer on
p 	pull off
s 	slide


 |-----------------------PALM MUTED--------------------------------------|
 Play 4 times
e|-----------------------------------------------------------------------|
B|-----------------------------------------------------------------------|
G|-----------------------------------------------------------------------|
D|-----------------------------------------------------------------------|  
A|-3-3-3-3---3-3-3-3---3-3-3-3---3---3---3-3-3-3-3-3-3-3-3-3-3-3---3---3-|
E|-----------------------------------------------------------------------|

 |-----------------------PALM MUTED--------------------------------------|
 Play 2 times
e|-----------------------------------------------------------------------|
B|-----------------------------------------------------------------------|
G|-5-5-5-5---5-5-5-5---5-5-5-5---5---5---5-5-5-5-5-5-5-5-5-5-5-5---5---5-|
D|-5-5-5-5---5-5-5-5---5-5-5-5---5---5---5-5-5-5-5-5-5-5-5-5-5-5---5---5-|  
A|-3-3-3-3---3-3-3-3---3-3-3-3---3---3---3-3-3-3-3-3-3-3-3-3-3-3---3---3-|
E|-----------------------------------------------------------------------|

 |-----------------------PALM MUTED--------------------------------------|
      o                             o   o
e|-------------------------------------------------------------------------|
B|-------------------------------------------------------------------------|
G|3-5-5-5-5-5---5-5-5-5---5-5-5-5---5---5---5-5-5-5-5-5-5-5-5-5-5-5---5---5|
D|----5-5-5-5---5-5-5-5---5-5-5-5---5---5---5-5-5-5-5-5-5-5-5-5-5-5---5---5|
A|----3-3-3-3---3-3-3-3---3-3-3-3---3---3---3-3-3-3-3-3-3-3-3-3-3-3---3---3|
E|-------------------------------------------------------------------------|
second time slow down and hold last note

e|-------------------------------------------------------------------------|
B|-------------------------------------------------------------------------|
G|5--5--5-5--5-5-8----5--5-5--5-5-5s6---5--5--5-5--5-5-8----5--5-5--5-5----|
D|5--5--5-5--5-5-8----5--5-5--5-5-5s6---5--5--5-5--5-5-8----5--5-5--5-5----|
A|3--3--3-3--3-3-6----3--3-3--3-3-3s4---3--3--3-3--3-3-6----3--3-3--3-3-4p3|
E|-------------------------------------------------------------------------|
 
e|--------------------------------------------------|
B|--------------------------------------------------|
G|--------------------------------------------------|
D|--1~~~~~1-----------------------------------------|
A|----------3-3~~~~~3h4-3h4-3h43~~~~~1-1-3~~~~~3----|
E|--------------------------------------------------|

e|--------------------------------------------------|
B|--------------------------------------------------|
G|--------------------------------------------------|
D|-1-1~~~~~1-3-3^4~~~~~-----------------------------|
A|---------------------3h4-3h4-3h4-3~~~~~1-1-3~~~~~-|
E|--------------------------------------------------|

e|-------------------------------------------------|
B|-------------------------------------------------|
G|-------------------------------------------------|
D|----------13~~~-------13h15-13-15^16^15-13-------|
A|-15-[x6]--------13h15----------------------15~~~-|
E|-------------------------------------------------|

                              pick
                           |-[x16]-|                        
e|-----------------------------------|
B|-----------------------------------|
G|----------------------15-17^18-^17-|
D|-------13h15-13h15s17--------------|
A|-13h15-----------------------------|
E|-----------------------------------|

                             pick
   |-[x8]-|  |-[x8]-|     |-[x16]-|
e|--------------------------------------------------------|
B|-11h16p11--11h18p11--16s18^19^-18--16-18-18^19^18-16----|
G|-----------------------------------------------------17-|
D|--------------------------------------------------------|
A|--------------------------------------------------------|
E|--------------------------------------------------------|

 play 3 times
e|-----------------------------------------------|     
B|-----------------------------------------------|
G|--15-15-15-15-14-14-14-14-15-15-17-17-15-13h15-|
D|-----------------------------------------------|
A|-----------------------------------------------| 
E|-----------------------------------------------|

e|-----------------------------------------------|
B|-----------------------------------------------|
G|--15-15-15-15-14-14-14-14-12-12-12-12----------|
D|--------------------------------------15-15-15-|
A|-----------------------------------------------|
E|-----------------------------------------------|

e|----------------------------------------------------|
B|----------------------------------------------------|
G|----------------------------------------------------|
D|-15^16^15-13----13----13----13----13----13----------|
A|-------------15----15----15----15----15----15~~~~~~-|
E|----------------------------------------------------|

[ Tab from: http://www.guitartabs.cc/tabs/k/kyuss/stage_iii_tab.html ]
e|-------------------------------------------------------------------------|
B|-------------------------------------------------------------------------|
G|5--5--5-5--5-5-8----5--5-5--5-5-5s6---5--5--5-5--5-5-8----5--5-5--5-5----|
D|5--5--5-5--5-5-8----5--5-5--5-5-5s6---5--5--5-5--5-5-8----5--5-5--5-5----|
A|3--3--3-3--3-3-6----3--3-3--3-3-3s4---3--3--3-3--3-3-6----3--3-3--3-3-4p3|
E|-------------------------------------------------------------------------|

 |-----------------------PALM MUTED--------------------------------------|
 play 2 times
e|-----------------------------------------------------------------------|
B|-----------------------------------------------------------------------|
G|-5-5-5-5---5-5-5-5---5-5-5-5---5---5---5-5-5-5-5-5-5-5-5-5-5-5---5---5-|
D|-5-5-5-5---5-5-5-5---5-5-5-5---5---5---5-5-5-5-5-5-5-5-5-5-5-5---5---5-|
A|-3-3-3-3---3-3-3-3---3-3-3-3---3---3---3-3-3-3-3-3-3-3-3-3-3-3---3---3-|
E|-----------------------------------------------------------------------|

 |-----------------------PALM MUTED----------------------------------------|
       o                             o   o
e|-------------------------------------------------------------------------|
B|-------------------------------------------------------------------------|
G|3-5-5-5-5-5---5-5-5-5---5-5-5-5---5---5---5-5-5-5-5-5-5-5-5-5-5-5---5---5|
D|----5-5-5-5---5-5-5-5---5-5-5-5---5---5---5-5-5-5-5-5-5-5-5-5-5-5---5---5|
A|----3-3-3-3---3-3-3-3---3-3-3-3---3---3---3-3-3-3-3-3-3-3-3-3-3-3---3---3|
E|-------------------------------------------------------------------------|
                                             
 |-----------------------PALM MUTED--------------------------------------|
       o                             o   o
e|-----------------------------------------------------------------------|
B|-----------------------------------------------------------------------|
G|-3-5-5-5-5-5---5-5-5-5---5-5-5-5---5---5---5-5-8-8-8-8-8-8-8-8-8-8-8-8-|
D|-----5-5-5-5---5-5-5-5---5-5-5-5---5---5---5-5-8-8-8-8-8-8-8-8-8-8-8-8-|  
A|-----3-3-3-3---3-3-3-3---3-3-3-3---3---3---3-3-6-6-6-6-6-6-6-6-6-6-6-6-|
E|-----------------------------------------------------------------------|

e|-------------------------------------------------------------------------|
B|-------------------------------------------------------------------------|
G|5--5--5-5--5-5-8----5--5-5--5-5-5s6---5--5--5-5--5-5-8----5--5-5--5-5----|
D|5--5--5-5--5-5-8----5--5-5--5-5-5s6---5--5--5-5--5-5-8----5--5-5--5-5----|
A|3--3--3-3--3-3-6----3--3-3--3-3-3s4---3--3--3-3--3-3-6----3--3-3--3-3-4p3|
E|-------------------------------------------------------------------------|

 play 4 times
e|-------------------------------------------------|
B|-------------------------------------------------|
G|-14-14-14-14-------------14-14-14-14-------------|
D|-------------13-13-13-13-------------13-13-13-13-|
A|-------------------------------------------------|  
E|-------------------------------------------------|

play 2 times
e|-------------------------------------------------|
B|-12-12-12-12-------------12-12-12-12-------------|
G|-------------14-14-14-14-------------14-14-14-14-|
D|-------------------------------------------------|
A|-------------------------------------------------|  
E|-------------------------------------------------|

play 2 times
e|-------------------------------------------------|
B|-15-15-15-15-------------15-15-15-15-------------|
G|-------------14-14-14-14-------------14-14-14-14-|
D|-------------------------------------------------|
A|-------------------------------------------------|  
E|-------------------------------------------------|

e|-------------------------------------------------------------------------|
B|-------------------------------------------------------------------------|
G|5--5--5-5--5-5-8----5--5-5--5-5-5s6---5--5--5-5--5-5-8----5--5-5--5-5----|
D|5--5--5-5--5-5-8----5--5-5--5-5-5s6---5--5--5-5--5-5-8----5--5-5--5-5----|
A|3--3--3-3--3-3-6----3--3-3--3-3-3s4---3--3--3-3--3-3-6----3--3-3--3-3-4p3|
E|-------------------------------------------------------------------------|

 |-----------------------PALM MUTED--------------------------------------|
 play 2 times
e|-----------------------------------------------------------------------|
B|-----------------------------------------------------------------------|
G|-5-5-5-5---5-5-5-5---5-5-5-5---5---5---5-5-5-5-5-5-5-5-5-5-5-5---5---5-|
D|-5-5-5-5---5-5-5-5---5-5-5-5---5---5---5-5-5-5-5-5-5-5-5-5-5-5---5---5-|
A|-3-3-3-3---3-3-3-3---3-3-3-3---3---3---3-3-3-3-3-3-3-3-3-3-3-3---3---3-|
E|-----------------------------------------------------------------------|

 |-----------------------PALM MUTED--------------------------------------|
       o                             o   o
e|-------------------------------------------------------------------------|
B|-------------------------------------------------------------------------|
G|3-5-5-5-5-5---5-5-5-5---5-5-5-5---5---5---5-5-5-5-5-5-5-5-5-5-5-5---5---5|
D|----5-5-5-5---5-5-5-5---5-5-5-5---5---5---5-5-5-5-5-5-5-5-5-5-5-5---5---5|
A|----3-3-3-3---3-3-3-3---3-3-3-3---3---3---3-3-3-3-3-3-3-3-3-3-3-3---3---3|
E|-------------------------------------------------------------------------|
                                                                    Fade out
Comments