Kyuss - Space Cadet Chords & Tabs

 

Space Cadet Chords & Tabs

Kyuss Chords & Tabs

Version: 1 Type: Tab 0 ratings
1 star 2 stars 3 stars 4 stars 5 stars
comments

Space Cadet Tab

   
#----------------------------------PLEASE NOTE---------------------------------#
#This file is the author's own work and represents their interpretation of the #
#song. You may only use this file for private study, scholarship, or research. #
#------------------------------------------------------------------------------#
Space Cadet    Kyuss

What I have tabbed here is the main guitar part. The guitar should be
tuned down half a step then the 6th string tuned down a whole step further,
in effect a drop C# tuning. But for those playing alone, just go for 
a drop-D tuning.

Intro:
---------------------------------|-----------------------------------
---------------------------------|-----------------------------------
---------------------------------|-----------------------------------
---0h2---2/3---3/5---5/6-----6/7-|---7h9p7-6---6\4---4\2---2p0-------
---------------------------------|-------------------------------5\3-
-0-----0-----0-----0-------0-----|-0------0--0-----0-----0-----0-----

-----------------------------------|---------------------------------------
-----------------------------------|---------------------------------------
-----------------------------------|---------------------------------------
-----------------------------------|---------------------------------------
---2s3-----3-2-5-3-2h3p2-----5---5-|---5--5-----3--3-----3-2---5-3-2h3p2--
-0-------0----5----------5-0---0---|-0--0-----0--0-----0-----5-----------5
[ Tab from: http://www.guitartabs.cc/tabs/k/kyuss/space_cadet_tab.html ]
Riff 1a
---------------------|---------------------------   Note: There is a second 
---------------------|---------------------------   guitar which plays a high
---------------------|---------------------------   part alongside this. I have
-0-0-x-----0---------|-0-0-x---------------------   a feeling it’s in a weird  
-0-0-x-8\\\0-3h5p3---|-0-0-x----------------3h5—-   tuning so I haven’t tabbed
-0-0-x-----0-------3-|-0-0-x-3b—--0-3/5-5h7------   it here.

Riff 1b
---------------------|-------------------------     Guitar 1 plays a number of
---------------------|-------------------------     variations on these riffs.
---------------------|-------------------------     These two parts are a useful
-0-0-x-----0---------|-------------------------     starting point, but are by no
-0-0-x-8\\\0-3h5p3---|-----------3--3h5--------     means perfect.
-0-0-x-----0-------3-|-0—3—5-5/7--------5h7-3--

Riff 2  
--------------------------  The verse parts combine both riff 1 a/b and riff 2. Look at 
--------------------------  the first verse below for an idea of how to alternate.
--------------------------  Basically, you play a cycle of riff 2/riff 1a/riff2/riff1b during
--------------------------  the verses, and also as a link. The chorus parts feature only
-3-x-3--5-3-2--2----------  riffs 1 a/b, except for repetition of the final line over riff 2.
-----------------0—3-x—3—   It sounds complex, but listen to the tune and you’ll figure it.


Tabman_007
Comments