Kyuss - Freedom Run Chords & Tabs

 

Freedom Run Chords & Tabs

Kyuss Chords & Tabs

Version: 1 Type: Tab 0 ratings
1 star 2 stars 3 stars 4 stars 5 stars
comments

Freedom Run Tab

   
"Freedom Run" by Kyuss
from the Album "Blues for the Red Sun", 1992

tabbed by Dragonaut

Tuning C

' bend
12'-'12 bend & release
~ vibrato
\ slide down
/ slide up
h hammer-on
p pull-off

Intro

-12'-'12~----12'-'12~----12'12-10-12'-'12-10---------------
---------------------------------------------12~----12\----
-----------------------------------------------------------

-9'-'9----9-9-9'-'9~----9h10\7------------0h7p0h7p0h7p0h7~-
-----------------------------------------------------------
-----------------------------------------------------------
[ Tab from: http://www.guitartabs.cc/tabs/k/kyuss/freedom_run_tab.html ]
------12-----------12---------12-----------12---------12-----------12---------12------12----12h14-12~-
---14----14-----14----14---14----14-----14----14---14----14-----14----14---14----14------14-----------
-0----------0-0----------0----------0-0----------0----------0-0----------0----------0-----------------
------------------------------------------------------------------------------------------------------

Main Riff (pm open As)
---------12~-------------------------------12~------------------
---------10~---------12\11-12\11-----------10~--------------12--
-0-0-0-0----0-0-0--0-10\-9-10\-9---0-0-0-0----0---0-0-0-0-0-10--
----------------------------------------------------------------
                              ----> stop PM As
---------12~--------------------------------------------------------
---------10~---------12\11-12\11-----10-9-----------10-9--------10--
-0-0-0-0----0-0-0--0-10\-9-10\-9---0------0-10-9-0-------0-10-9-10--
-----------------------------------------------------------------8--

Chorus
--------------/12--12-12-12-12--12--
-7-7-7-7-7--7-/12--12-12-12-12--12--
-7-7-7-7-7--7-/10--10-10-10-10--10--
-5-5-5-5-5--5-----------------------
Comments