Kyuss - Fatso Forgotso Chords & Tabs

 

Fatso Forgotso Chords & Tabs

Kyuss Chords & Tabs

Version: 2 Type: Bass Tab 0 ratings
1 star 2 stars 3 stars 4 stars 5 stars
comments

Fatso Forgotso Bass Tab

   
Artist : Kyuss
Song : Fatso Forgotso
Album: Muchas Gracias: The Best of Kyuss (2000)
Tuning: C-F-Bb-Eb
Notes:

/ : Slide Up
\ : Slide Down
h : Hammer-On
p : Pull-Off


Intro:
Eb|------------------|----------------|
Bb|---------10-12//--|---------10-12--|
F |---8---8----10//--|---8---8----10--|
C |-9---9------------|-9---9----------|


Verse part 1:                               
Eb|----------------------------------------|
Bb|-12/------8-8---------------------------|
F |-10/-8h10-----10-8----------8-8-8-8-8-8-|
C |-------------------9--9-9-9-------------|

 Last Time:
Eb|-------------------13--13-13-13------------------|
Bb|-12/------8-8------11--11-11-11------------------|
F |-10/-8h10-----10-8--------------8-8-8-8-8-8------|
C |--------------------------------------------3//--|

[ Tab from: http://www.guitartabs.cc/tabs/k/kyuss/fatso_forgotso_btab_ver_2.html ]
Verse part 2:
Eb|----------------------------------------|
Bb|-12/------------------------------------|
F |-10/------------------------8-8-8-8-8-8-|
C |-------------------9--9-9-9-------------|

 Last Time:
Eb|-------------------13--13-13-13--------------|
Bb|-12/---------------11--11-11-11--------------|
F |-10/----------------------------8-8-8-8-8-8--|
C |---------------------------------------------|


Breakdown: Play each note 8 times
Eb|------------------------------------------|
Bb|-----------------------13-12----13-12-15--|
F |-----6-5---6-5-8-10-12-------13-----------|
C |-3-5-----6--------------------------------|


Outro Fill: Not exact
Eb|-/14-12--------------------------|
Bb|--------12h14-13-12--------------|
F |--------------------12-14-13-12--|
C |---------------------------------|

Riffs in the outro:  
  In the key of F so just improv and add descending and ascending fills throughout
Eb|-------------------------|
Bb|-------------------------|
F |-0-0-/12--0/12--/12-/12--|
C |-------------------------|

Eb|-----5---5-5-5-5/7-5-----|
Bb|-----5---5-5-5-5/7-5-----|
F |-0-0---0-------------0---|
C |-------------------------|
Comments