Kyuss - El Rodeo Chords & Tabs

 

El Rodeo Chords & Tabs

Kyuss Chords & Tabs

Version: 2 Type: Tab 0 ratings
1 star 2 stars 3 stars 4 stars 5 stars
comments

El Rodeo Tab

Kyuss: El Rodeo
Album: "...And the Circus Leaves Town"
Lyrics by J. Homme
Music by Kyuss
Tabbed out by Shaun...
email: nirvana4life17@hotmail.com

K...Kyuss...like Queens of the Stone Age, tune down 2 whole steps, but who 
really wants to do that all the time, so I wrote this tab in standard form…
enjoy

Intro:
e|----------------------------------------------------------|
B|----------------------------------------------------------|
G|-12~~~12h13h15p13-12h13p12~~--12/11-------------8---------|(x3)
D|-------------------------------------8--8-8-8-8----10-----|
A|----------------------------------------------------------|
E|----------------------------------------------------------|

e|-------------------------------------------------------------|
B|------------------------------------13-----------------------|
G|-12~~~12h13h15p13-12h13p12~~--12/11---------------8----------|
D|---------------------------------------8--8-8-8-8---10-------|
A|-------------------------------------------------------------|
E|-------------------------------------------------------------|

e|----------------------------------------------------------|
B|----------------------------------------------------------|
G|-12~~~12h13h15p13-12h13p12~~--12/11-------------8---------|(x2)
D|-------------------------------------8--8-8-8-8----10-----|
A|----------------------------------------------------------|
E|----------------------------------------------------------|
[ Tab from: http://www.guitartabs.cc/tabs/k/kyuss/el_rodeo_tab_ver_2.html ]
e|----------------------------------------------------------|
B|--------------------------------------13—-13~~~-----------|
G|-12~~~12h13h15p13-12h13p12~~--12/11-11--11-------------8--|
D|--------------------------------------------8--8-8-8-8--10|
A|----------------------------------------------------------|
E|----------------------------------------------------------|

e|----------------------------------------------------------|
B|----------------------------------------------------------|
G|-12~~~12h13h15p13-12h13p12~~--12/11-------------8---------|
D|-------------------------------------8--8-8-8-8----10-----|
A|----------------------------------------------------------|
E|----------------------------------------------------------|

e|-------------------|---------------------------------------|
B|-------------------|---------------------------------------|
G|-5-5-5-5-5-5-5-5-5-|-8--8--8--8-8/9\-7--7--7--7------------|
D|-5-5-5-5-5-5-5-5-5-|-8--8--8--8-8/9\-7--7--7--7------------|
A|-3-3-3-3-3-3-3-3-3-|-6--6--6--6—6/7\-5--5--5--5------------|
E|----------------------------------------------------------|

Verse
e|-------------------------------------||-------------------|
B|-------------------------------------||-------------------|
G|-8-8-8-8-8-8-8-8---7-7-7-7-7-7-7-7---||-3/5-5-5-5-5-5-5-5-|2nd
D|-8-8-8-8-8-8-8-8---7-7-7-7-7-7-7-7---||-3/5-5-5-5-5-5-5-5-|pt
A|-6-6-6-6-6-6-6-6h7-5-5-5-5-5-5-5-5---||-1/3-3-3-3-3-3-3-3-|(x2)
E|-------------------------------------||-------------------|
   Johnny            Johnny               
Chorus:
e|-------------------------------------------------------------|
B|-------------------------------------------------------------|
G|------------------------------3/5-5-5-5-5-5-5-3/5-5-5-5-5-5-5|
D|------------------------------3/5-5-5-5-5-5-5-3/5-5-5-5-5-5-5|
A|-6~~~~~~~~~~7-5~~~~~~~~~~~~~~-1/3-3-3-3-3-3-3-1/3-3-3-3-3-3-3|
E|-------------------------------------------------------------|
Comments