Kyuss - El Rodeo Chords & Tabs

 

El Rodeo Chords & Tabs

Kyuss Chords & Tabs

Version: 1 Type: Tab 1 rating
1 star 2 stars 3 stars 4 stars 5 stars
comments

El Rodeo Tab

Song: El Rodeo
Band: Kyuss
Album: And the circus leaves town...
Transcribed by James Buck

I actually think the intro to this song is the most annoying ever written by kyuss but anyway, i stumbled on it accidently while noodling so thought i might as well tab out the whole song. as far as i can tell it is 100% accurate except for one riff played on the second guitar which i didn't tab. maybe i'll put it up later. Enjoy!!

Tune down to C- 4 frets down

intro riff
|--------------------------------------------------------------------|
|-12~~--12-13-13/15-13-12h13h12~~--12-11~~-----------------------|
|--------------------------------------------------------------------|
|-----------------------------------------------12-12--12-12/1514-|
|--------------------------------------------------------------------|
|--------------------------------------------------------------------|
[ Tab from: http://www.guitartabs.cc/tabs/k/kyuss/el_rodeo_tab.html ]
Variation
|-----------------------------------------------12----12-----------------|
|-12~~--12-13-13/15-13-12h13h12~~--12-11~~--11----11--------------------|
|----------------------------------------------------------------------------|
|-----------------------------------------------------------12--12-12/1514-|
|----------------------------------------------------------------------------|
|----------------------------------------------------------------------------|

Bridge
|----------------------------------------------------|
|----------------------------------------------------|
|-10-10-10-10-10-10-10-10/12-12--9--9-9-9-9--9-9-|
|-10-10-10-10-10-10-10-10/12-12--9--9-9-9-9--9-9-|
|-8---8--8--8--8--8--8---8/10-10--7--7-7-7-7--9-9-|
|----------------------------------------------------|

Verse- repeated constantly after about 2:20
|------------------------------------|----------------|
|------------------------------------|----------------|
|-7/9-9-9-9-9-9-9-9-9-9-9-9-9--9-9-|-12---12/14-11-|
|-7/9-9-9-9-9-9-9-9-9-9-9-9-9--9-9-|-12---12/14-11-|
|-5/7-7-7-7-7-7-7-7-7-7-7-7-7--7-7-|-10---10/12-9--|
|----------------------------------x2|----------------|


Comments