Kyuss - Demon Cleaner Chords & Tabs

 

Demon Cleaner Chords & Tabs

Kyuss Chords & Tabs

Version: 4 Type: Tab 0 ratings
1 star 2 stars 3 stars 4 stars 5 stars
comments

Demon Cleaner Tab

   
-------------------------------------------------------------------------------
			     Demon Cleaner - Kyuss
-------------------------------------------------------------------------------
Tabbed by: FunMachine
Email: eriador88@hotmail.com

Tuning: 2 whole steps down to C (C,F,Bb,Eb,G,C)

   Main Riff:
 C|--------------------------------|
 F|--------------------------------|
Bb|----12-10-12-10-12-14b 12 14----|  Play this 3x
Eb|-----------------------------12-|
 G|--------------------------------|
 C|-10-----------------------------|


 C|-------------------------------------|
 F|-------------------------------------|
Bb|---12-10-12-10-12-14br-14br-14br-14~-|
Eb|-------------------------------------|
 G|-------------------------------------|
 C|-10----------------------------------|


 Verse 1:
 C|-------------------------|-------------------------|
 F|-------------------------|-------------------------|
Bb|-------------------------|-------------------------|
Eb|-------------------------|-------------------------|
 G|-12-12-12-10h12-12-12----|-12-12-12-10h12-12-12----|
 C|-10-10-10-------10-10-13-|-10-10-10-------10-10-13-|

 C|-----------------------------------------------------------|
 F|-----------------------------------------------------------|
Bb|-----------------------------------------------------------| Play verse
Eb|------------------------------------------------x-------12-| 4x
 G|-12-12-12-10h12-12-12----12-12-12-10h12-12------x-10h12----|
 C|-10-10-10-------10-10-13-10-10-10-------10------x----------|


 Chorus "Yeah":
 C|-------------------------------------------------------------------|
 F|-------------------------------------------------------------------|
Bb|-------------------------------------------------------------------| 2x
Eb|----14-12-14-12-14----14-12-14-12-14----12-11-12-11----12-11-12-11-|
 G|-------------------------------------------------------------------|
 C|-10----------------10----------------10-------------10-------------|



  Verse 2:
 C|-------------------------|-------------------------|
 F|-------------------------|-------------------------|
Bb|-------------------------|-------------------------|
Eb|-------------------------|-------------------------|
 G|-12-12-12-10h12-12-12----|-12-12-12-10h12-12-12----|
 C|-10-10-10-------10-10-13-|-10-10-10-------10-10-13-|

 C|-----------------------------------------------------------|
 F|-----------------------------------------------------------|
Bb|-----------------------------------------------------------| Play verse
Eb|------------------------------------------------x-------12-| 2x
 G|-12-12-12-10h12-12-12----12-12-12-10h12-12------x-10h12----|
 C|-10-10-10-------10-10-13-10-10-10-------10------x----------|



  Chorus "Yeah":
 C|----------------------------------------------------------------|
 F|----------------------------------------------------------------|
Bb|----12-10-12-10-12-14b-12-14-------12-10-12-10-12-14br-14br-14b-|
Eb|-----------------------------12---------------------------------|
 G|----------------------------------------------------------------|
 C|-10-----------------------------10------------------------------|

 C|--------------------------------|
 F|--------------------------------|
Bb|----12-10-12-10-12-14b-12-14----|
Eb|-----------------------------12-|
 G|--------------------------------|
 C|-10-----------------------------|

 C|-------------13br-13br-13br-13br-13br-13b-|
 F|-------13-15------------------------------|
Bb|-12-14------------------------------------|
Eb|------------------------------------------|
 G|------------------------------------------|
 C|------------------------------------------|



 Verse 3
 C|-------------------------|-------------------------|
 F|-------------------------|-------------------------|
Bb|-------------------------|-------------------------|
Eb|-------------------------|-------------------------|
 G|-12-12-12-10h12-12-12----|-12-12-12-10h12-12-12----|
 C|-10-10-10-------10-10-13-|-10-10-10-------10-10-13-|

 C|-------------------------|-----------------------------------|
 F|-------------------------|-----------------------------------|
Bb|-------------------------|-----------------------------------| Play verse
Eb|-------------------------|------------------------x-------12-| 2x
 G|-12-12-12-10h12-12-12----|-12-12-12-10h12-12------x-10h12----|
 C|-10-10-10-------10-10-13-|-10-10-10-------10------x----------|



  Chorus "Yeah":
 C|-------------|-------------|-------------|
 F|-------------|-------------|-------------|
Bb|-------------|-------------|-------------|
Eb|-12-12-12-12-|-12-12-12-12-|-12-12-12-12-|
 G|-------------|-------------|-------------|
 C|-10-10-10-10-|-10-10-10-10-|-10-10-10-10-|

 C|-------------|-------------|-------------|
 F|-------------|-------------|-------------|
Bb|-------------|-------------|-------------| Play chorus 4x
Eb|-12-12-12-12-|-12-12-12-12-|-10-10-10-10-|
 G|-------------|-------------|-------------|
 C|-10-10-10-10-|-10-10-10-10-|-8--8--8--8--|



  Bridge
 C|-------------------------------------|
 F|-------------------------------------|
Bb|-------------------------------------| 9x
Eb|-12-12-12-12-12-12-12-12-12-12-12-12-|
 G|-------------------------------------|
 C|-------------------------------------|

 C|-------------------------------------|
 F|-------------------------------------|
Bb|-------------------------------------|  Play
Eb|-10-10-10-10-10-10-10-10-10-10-12-10-|
 G|-------------------------------------|
 C|-------------------------------------|

 C|-------------------------------------|
 F|-------------------------------------|
Bb|-------------------------------------|  This
Eb|-------------------------------------|
 G|-13-13-13-13-13-13-13-13-13-13-15-13-|
 C|-------------------------------------|

 C|-------------------------------------|
 F|-------------------------------------|  Part
Bb|-------------------------------------|
Eb|-12-12-12-12-12-12-12-12-12-12-12-12-|
 G|-------------------------------------|
 C|-------------------------------------|

 C|-------------------------------------|
 F|-------------------------------------|
Bb|-------------------------------------|  2x
Eb|-12-12-12-12-12-12-12-12-12-12-12-12-|
 G|-------------------------------------|
 C|-------------------------------------|


[ Tab from: http://www.guitartabs.cc/tabs/k/kyuss/demon_cleaner_tab_ver_4.html ]
 C|-------------------------------------|
 F|-------------------------------------|
Bb|-------------------------------------|
Eb|-10-10-10-10-10-10-10-10-10-10-12-10-|
 G|-------------------------------------|
 C|-------------------------------------|

 C|-------------------------------------|
 F|-------------------------------------|
Bb|-------------------------------------|
Eb|-------------------------------------|
 G|-13-13-13-13-13-13-13-13-13-13-15-13-|
 C|-------------------------------------|

 C|-------------------------------------|
 F|-------------------------------------|
Bb|-------------------------------------|
Eb|-12-12-12-12-12-12-12-12-12-12-12-12-|
 G|-------------------------------------|
 C|-------------------------------------|

 C|-------------------------------------|
 F|-------------------------------------|
Bb|-------------------------------------|
Eb|-------------------------------------|
 G|-12-12-12-12-12-12-12-12-12-12-12-12-|
 C|-10-10-10-10-10-10-10-10-10-10-10-10-|

 C|-------------------------------------|-------------------------|
 F|-------------------------------------|-------------------------|
Bb|-------------------------------------|-------------------------|
Eb|-------------------------------------|-------------------------|
 G|-10-10-10-10-10-10-10-10-10-10-10-10-|-8-8-8-8-8-8-8-8-8-8-8-8-|
 C|-8--8--8--8--8--8--8--8--8--8--8--8--|-6-6-6-6-6-6-6-6-6-6-6-6-|




 C|-------------------------------------|
 F|-------------------------------------|
Bb|-------------------------------------|
Eb|-------------------------------------|
 G|-12-12-12-12-12-12-12-12-12-12-12-12-|
 C|-10-10-10-10-10-10-10-10-10-10-10-10-|

    *!                                     *= when here for the 
 C|-------------------------------------|     2nd time, Gtr 2
 F|-------------------------------------|
Bb|-------------------------------------|
Eb|-------------------------------------|
 G|-12-12-12-12-12-12-12-12-12-12-12-12-| These 3x
 C|-10-10-10-10-10-10-10-10-10-10-10-10-|




 C|-------------------------------------|-------------------------|
 F|-------------------------------------|-------------------------|
Bb|-------------------------------------|-------------------------|
Eb|-------------------------------------|-------------------------|
 G|-10-10-10-10-10-10-10-10-10-10-10-10-|-8-8-8-8-8-8-8-8-8-8-8-8-|
 C|-8--8--8--8--8--8--8--8--8--8--8--8--|-6-6-6-6-6-6-6-6-6-6-6-6-|

 C|-------------------------------------|
 F|-------------------------------------|
Bb|-------------------------------------|
Eb|-------------------------------------|
 G|-12-12-12-12-12-12-12-12-12-12-12-12-|
 C|-10-10-10-10-10-10-10-10-10-10-10-10-|


 
Gtr 2: (look for the * above)
 C|-------------------------------------|
 F|-------------------------------------|
Bb|-------------------------------------|
Eb|-12-12-12-12-12-12-12-12-12-12-12-12-|
 G|-------------------------------------|
 C|-------------------------------------|

 C|-------------------------------------|
 F|-------------------------------------|
Bb|-------------------------------------|
Eb|-10-10-10-10-10-10-10-10-10-10-12-10-|
 G|-------------------------------------|
 C|-------------------------------------|

 C|-------------------------------------|
 F|-------------------------------------|
Bb|-------------------------------------|
Eb|-------------------------------------|
 G|-13-13-13-13-13-13-13-13-13-13-15-13-|
 C|-------------------------------------|

 C|-------------------------------------|
 F|-------------------------------------| Gtr 2 repeat to end
Bb|-------------------------------------|
Eb|-12-12-12-12-12-12-12-12-12-12-12-12-|
 G|-------------------------------------|
 C|-------------------------------------|



End Solo:
 C|---------------------------------12-14br-14br-14br-14-14-|
 F|---------------------12-12-12-14-------------------------|
Bb|-13br-13br-13br-13br-------------------------------------|
Eb|---------------------------------------------------------|
 G|---------------------------------------------------------|
 C|---------------------------------------------------------|

 C|----------------------------------------------|
 F|-15p12----15p12----15p12----------------------|
Bb|-------14-------14-------14-14p11----14p11----|
Eb|----------------------------------13-------13-|
 G|----------------------------------------------|
 C|----------------------------------------------|

 C|--------------------------------------------|
 F|-15br-15br-15-14-12-------------------------|
Bb|--------------------14-12-------------------|
Eb|--------------------------14-12-------------|
 G|--------------------------------10-12p10-12-|
 C|--------------------------------------------|

 C|-------------------------------------|
 F|-------------------------------------|
Bb|-------------------------------------|
Eb|-------------------------------------|
 G|-14br-14br-14br-14\12-10-12-10-12-12-|
 C|-------------------------------------|

 C|-------------------------------------------|
 F|-------------------------------------------|
Bb|----------------------12-------12----------| 
Eb|----------12-14-12h14----12h14----12h14-12-|
 G|-10-12-14----------------------------------|
 C|-------------------------------------------|

 C|------------------------------------------------|
 F|------------------------------------------------|
Bb|------------------14br-14br-14br-14br-14br-14br-|
Eb|------------------------------------------------|
 G|14-12p10h12p10-12-------------------------------|
 C|------------------------------------------------|

 C|----------------------------| 
 F|-12-------------------------| 
Bb|----14----------------------|
Eb|-------12h14-12-------------| 
 G|----------------14-12-10----|
 C|-------------------------12-|

 C|----------------------------------------------|
 F|-15p12----15p12----15p12----15p12----15p12----|
Bb|-------14-------14-------14-------14-------14-|
Eb|----------------------------------------------|
 G|----------------------------------------------|
 C|----------------------------------------------|

 C|-----------------------------------------------...
 F|-----------------------------------------------...
Bb|-14p11----14p11----14p11----14p11----14p11-----... Fade out
Eb|-------13-------13-------13-------13-------13--...
 G|-----------------------------------------------...
 C|-----------------------------------------------...



| /  slide up
| \  slide down
| h  hammer-on
| p  pull-off
| ~  vibrato
| +  harmonic
| x  Mute note
===============================================================================
Comments