Kyuss - Demon Cleaner Chords & Tabs

 

Demon Cleaner Chords & Tabs

Kyuss Chords & Tabs

Version: 2 Type: Tab 0 ratings
1 star 2 stars 3 stars 4 stars 5 stars
comments

Demon Cleaner Tab

   
kyuss, demon cleaner

     kyuss
   demon cleaner
transcription by marcelo f. v.
bodedomal@bol.com.br

tuning : low to high :c g c f a d
                         or
                      c f a# d# g c

drums
intro of music on the bass line :
g-----------------3333---1111--
d------------------------------
a---3333---3333----------------   2x
e------------------------------
b------------------------------

 

guitar1 intro

d----------------------------------------------------:-----------
a----------------------------------------------------:-----------
f------(12)--12~~-10--p88-h10--8-10-8--10~-12-13-12--:10--12~----
c----------------------------------------------------:-------10~~
g----------------------------------------------------:-----------
c----------------------------------------------------:-----------
                                                       in the end
                                                         intro

;---------
;---------
;-12brbr~~
;---------
;---------
;---------

 guitar2 intro , BRIGDE3 , VERSE  

d-----------------------------
a-----------------------------
f--------------------1212-----
c-10-10101010--1010--1010~~~~-
g-X--XXXXXXXX--XXXX--XXXX-//--
C-10-10101010--1010--1010~~~~-

verse
[ Tab from: http://www.guitartabs.cc/tabs/k/kyuss/demon_cleaner_tab_ver_2.html ]
D-----------------------------
A-----=-----------------------
F-----------------------------
C-10---------------X-13~~B15--
G--X---------------X--X-------
C-10--X-10H11P10---X-13~~B15--

C-10--X-10H13P10---X-13~~~B15-

C-10---------------X-13--10--10H13P10~--
G------------------------10--10H13P10~--
C-10--X-10H11P10---X-13--10--10H13P10~--

BRIDGE 

C-10~~-------------------
G-10~~--18-16-1816-18~---  2X
C-10~~-------------------

C-9~~--------------------
G-9~~---17-15-1715-17~~--  2X
C-9~~--------------17~~--

VERSE

INTRO

VERSE

BRIGDE3

FINAL VERSE AND OUTRO
D----------------------6-----XX-X-------
A----------------------9-----XX-13------
F-X-----------X--------8-----10-12------
C10-----------8--------6------8-10-------
GX-----26X----X--26X---X--26X-8-X---28X--
C10-----------8--------6------8-10------

SOLO OUTRO
 
A---19BRRB~~~~~~~19~~19/21^19^18~~--------------etc...

d------------------15~~~------------------------------------15~~--------
A--12P10P8H11H12P8-19~~~~-10P8P6H12P6H12P10-----------------14~---------
F----------7~~~--------------9~--------------6P5H6P5H7P6H5--12~~--etc...

D------------------------------------------------------------------------
A-15B~/13B//-10H11B--P10BRB~~~~-0-10B~--11B~-10--8B~~/6B~\~/8--/~\6-4B~~-
F------------------------------------------------------------------------

end

10/02/2002

14:50 finish
Comments