Kyuss - Capsized Chords & Tabs

 

Capsized Chords & Tabs

Kyuss Chords & Tabs

Version: 1 Type: Tab 0 ratings
1 star 2 stars 3 stars 4 stars 5 stars
comments

Capsized Tab

   
Artist: Kyuss
Song: Capsized
Album: Blues for the red sun
Tuning: Standard (low to high) E A D G B E

The pattern of strumming is pretty simple, but hard to put down in tab so you’ll just have to listen to the song to work it out. 

E |---|---|---|
B |---|---|---|
G |-8-|-11|-9-|
D |-x-|-x-|-x-|
A |-6-|-9-|-7-|
E |---|---|---|

LEAD:

E |-------16-------14-----12-----11h12p11------11----9---7---9--------|
B |----14-------14-----------------------12---------7----5---7---7(8)-|
G |-13-------13---------13-------------------11----6-----4---6--------|
D |-------------------------------------------------------------------|
A |-------------------------------------------------------------------|
E |-------------------------------------------------------------------|

E |-------7---9(11)-----------7-9---7--------|
B |-7-7---------------7-----7-----7-----7----|
G |-----8-----------8---8-8-----------9---8~-|
D |------------------------------------------|
A |------------------------------------------|
E |------------------------------------------|
[ Tab from: http://www.guitartabs.cc/tabs/k/kyuss/capsized_tab.html ]
E |-7-7-9-9-7-7---11-----11------11----|
B |-5---7---5--------------------------|
G |-4---6---4-------11-----11-------11-|
D |--------------------13-----13-------|
A |------------------------------------|
E |------------------------------------|

E |-7-9-9-7-9-4---|
B |-5-7-7-5-7-4---|
G |-4-6-6-4-6-4---|
D |-----------6---|
A |---------------|
E |---------------|

E |-7-7-9-9-7-7---11-------11-------|-9-7-9-7-9---11--|
B |-5---7---5--------12-12----12-12-|-7-5-7-5-7---9---|
G |-4---6---4-----------------------|-6-4-6-4-6---8---|
D |---------------------------------|-----------------|
A |---------------------------------|-----------------|
E |---------------------------------|-----------------|

E |-------16------------------------------------------------|
B |-12/14----16-19-16h19p16-16---16h19p16-17-16-17-16h17p16-|
G |---------------------------------------------------------|
D |---------------------------------------------------------|
A |---------------------------------------------------------|
E |---------------------------------------------------------|
  |---------------------|-FADE-OUT-|------------------------|


Tabbed by Jon Launder
Comments