Kyuss - Big Bikes Chords & Tabs

 

Big Bikes Chords & Tabs

Kyuss Chords & Tabs

Version: 1 Type: Tab 0 ratings
1 star 2 stars 3 stars 4 stars 5 stars
comments

Big Bikes Tab

   
This song rules and so i thought you kyuss fans would want to know it.

intro
e------------------------------------------------
b------------------------------------------------
g------------------------------------------------
d------------------------------------------------
a----------7--6--5~------------------------------
E--0----0------------0--0--7--6--5--3------------
   .                 .

play until it sounds right to change
[ Tab from: http://www.guitartabs.cc/tabs/k/kyuss/big_bikes_tab.html ]
Riff
e------------------------------------------------
b------------------------------------------------
g------------------------------------------------
d------------------------------------------------
a--2----2--2--2--2-2-7----5----5-2---------------
E--0----0--0--0--0-0-5----3----3-0---------------
   .    .  .  .  .
 
Chorus
e------------------------------------- s ----------
b------------------------------------- i ----------
g------------------------------------- l ----------
d------------------------------------- e ----------
a--4/5--4/5--4/5--4/5--4/5--4/5--4---- n ----------
E--2/3--2/3--2/3--2/3--2/3--2/3--2---- c ----------
                                       e

 . - pamb mute before the next note is played
 ~ - vibrato
 
Just play this over with the song to get the rhythmn and the silent bit properly.

Sorry i aint got the solo but i aint really a solo manm more of a rhythmn dude.

ANY KYUS FANS OUT THERE E-MAIL ME PLEASE CAUSE I DONT KNOW TOO MANY, morningstoner666@hotmail.com.

Happy playin. 
Comments