Kyo - Une Derniere Danse Chords & Tabs

 

Une Derniere Danse Chords & Tabs

Kyo Chords & Tabs

Version: 1 Type: Tab 0 ratings
1 star 2 stars 3 stars 4 stars 5 stars
comments

Une Derniere Danse Tab

   
Since this song is so popular in France, i have decided to tab a very simple
version of it. However, it might not be too accurate, so accept my apologies. :)

Verse 1

E------------------------------------------------------------------|
B------------------------------------------------------------------|
G-0-2-4-4-4-4-4-5-5-5-5-4-4-5-4-2--2-2-5-4-4-4-4-4-4-5-5-0-0-2-4-7-|
D------------------------------------------------------------------|
A------------------------------------------------------------------|
E------------------------------------------------------------------|

E------------------------------------------------------------------|
B------------------------------------------------------------------|
G-2--0-2-4-4-4-4-5-5-5-4-4-4-4-4-4-4-2-5-4-0-0-0--5-5-7-7-5-4-2----|
D------------------------------------------------------------------|
A------------------------------------------------------------------|
E------------------------------------------------------------------|

Chorus

E-------------------------------------------------------------------|
B-----------------------------------------8-7-5-0-3-----------------|
G-0-2-4-4-4-2-0-2-0-2-4-4-5-4-2-0-2-0-2-4-----------0-2-4-4-5-7-7-5-|
D-------------------------------------------------------------------|
A-------------------------------------------------------------------|
E-------------------------------------------------------------------|

E------------------------------------------------------------------|
B------------------------------------------------------------------|
G-4-2--------------------------------------------------------------|
D------------------------------------------------------------------|
A------------------------------------------------------------------|
E------------------------------------------------------------------|

Verse 2

E-------------------------------------------------------------------|
B-------------------------------------------------------------------|
G-0-0-2-5-4-4-0-0-5-4-4-4-4-4-5-4-2-2-0-2-4-4-4-4-5-0-0-0-4-4-7-4-2-|
D-------------------------------------------------------------------|
A-------------------------------------------------------------------|
E-------------------------------------------------------------------|
[ Tab from: http://www.guitartabs.cc/tabs/k/kyo/une_derniere_danse_tab.html ]
E------------------------------------------------------------------|
B------------------------------------------------------------------|
G-0-0-2-5-4-4-0-0-5-4-4-4-4-7-4-4-4-5-7-5-4-2-4-7-5-5-5-7-7-5-2-4--|
D------------------------------------------------------------------|
A------------------------------------------------------------------|
E------------------------------------------------------------------|

Chorus Again

Verse 3

E-------------------------------------------------------------------|
B-------------------------------------------------------------------|
G-0-0-2-5-4-4-4-4-5-4-4-4-4-4-5-4-2-0-0-2-4-4-4-4-5-0-0-4-4-5-7-4-2-|
D-------------------------------------------------------------------|
A-------------------------------------------------------------------|
E-------------------------------------------------------------------|

E-------------------------------------------------------------------|
B-------------------------------------------------------------------|
G-0-2-5-4-4-5-4-4-4-4-4-4-5-4-2-0-0-2-4-4-4-4-5-0-0-4-4-5-7-4-2-0-2-|
D-------------------------------------------------------------------|
A-------------------------------------------------------------------|
E-------------------------------------------------------------------|

E-------------------------------------------------------------------|
B-------------------------------------------------------------------|
G-5-4-4-5-4-4-4-4-4-4-5-4-2-4-0-4-4-5-4-2-4-0-4-0-2-4-4-5-4-2-0-2-0-|
D-------------------------------------------------------------------|
A-------------------------------------------------------------------|
E-------------------------------------------------------------------|

E------------------------------------------------------------------|
B-----8-7-8-7-5----------------------------------------------------|
G-2-4-----------0-2-4-4-4--4-5-5-5-5-4-4-5-4-2-2-2-5-4-4-4-4-4-5-5-|
D------------------------------------------------------------------|
A------------------------------------------------------------------|
E------------------------------------------------------------------|

E-------------------------------------------------------------------|
B-------------------------------------------------------------------|
G-0-0-2-4-7-2-0-2-4-4-4-4-5-5-5-4-4-4-4-4-4-4-2-5-4-0-0-0-5-5-7-7-5-|
D-------------------------------------------------------------------|
A-------------------------------------------------------------------|
E-------------------------------------------------------------------|

E------------------------------------------------------------------|
B-----3-3-2-1------------------------------------------------------|
G-4-2--------------------------------------------------------------|
D------------------------------------------------------------------|
A------------------------------------------------------------------|
E------------------------------------------------------------------|

That's all. I hope it doesn't sound too bland. :) Enjoy.
Comments