Kyo - Tout Envoyer En Lair Chords & Tabs

 

Tout Envoyer En Lair Chords & Tabs

Kyo Chords & Tabs

Version: 1 Type: Tab 0 ratings
1 star 2 stars 3 stars 4 stars 5 stars
comments

Tout Envoyer En Lair Tab

www.kyomusic.com

French pop rock band , two albums released , the last one "Le chemin" gave them a huge 
from the public and the music buisiness , winning french and european prizes (MTV europe 
best French Act in 2003)


Here's the intro from the best song of the second album of this pop-rock French band
[ Tab from: http://www.guitartabs.cc/tabs/k/kyo/tout_envoyer_en_lair_tab.html ]
e------------------------------------------------9----------------------|
B-------------------------10------------------------------------------9-|
G--------7/11--11--10--11-----11----11--10--11------11----11--10--11----|
D-----------------------------------------------------------------------|
A-----------------------------------------------------------------------|
E-----------------------------------------------------------------------|


e----------------------------------------------------------------------|
B----------------------------------------------------------------------|
G---11----11--10--11---------------------------------------------------|
D----------------------------------------------------------------------|
A----------------------------------------------------------------------|
E----------------------------------------------------------------------|


play three times with disto, and after every chorus
Comments