Kyo - Qui Je Suis Chords & Tabs

 

Qui Je Suis Chords & Tabs

Kyo Chords & Tabs

Version: 1 Type: Tab 0 ratings
1 star 2 stars 3 stars 4 stars 5 stars
comments

Qui Je Suis Tab

   
Ta-ra-ra-ra ta-ra-ra-ra...

Intro/Outro (Distortion) - 2 times:

Rhytm guitar:

  G5                  G5

E|---------------------------------------|
B|---------------------------------------|
G|---------------------------------------|
D|-5~------------------5~----------------|
A|-5~------------------5~----------------|
E|-3~------------------3~----------------|

Solo Guitar:

E|---------------------------------------|
B|-8-8-----------------8-8---------------|
G|-----7-7--5-5--4-4-------7-7--5-5--4-4-|
D|---------------------------------------|
A|---------------------------------------|
E|---------------------------------------|

Rhytm guitar:

  E5m                 E5m

E|---------------------------------------|
B|---------------------------------------|
G|---------------------------------------|
D|-2~------------------2~----------------|
A|-2~------------------2~----------------|
E|---------------------------------------|

Solo Guitar:

E|---------------------------------------|
B|-8-8-----------------8-8---------------|
G|-----7-7--5-5--4-4-------7-7--5-5--4-4-|
D|---------------------------------------|
A|---------------------------------------|
E|---------------------------------------|

Rhytm guitar:

  H5                  H5

E|---------------------------------------|
B|---------------------------------------|
G|-4~------------------4~----------------|
D|-4~------------------4~----------------|
A|-2~------------------2~----------------|
E|---------------------------------------|

Solo Guitar:

E|---------------------------------------|
B|-7-7-----------------7-7---------------|
G|-----7-7--5-5--4-4-------7-7--5-5--4-4-|
D|---------------------------------------|
A|---------------------------------------|
E|---------------------------------------|

Rhytm guitar:

  D5                  D5

E|---------------------------------------|
B|---------------------------------------|
G|-7~------------------7~----------------|
D|-7~------------------7~----------------|
A|-5~------------------5~----------------|
E|---------------------------------------|

Solo Guitar:

E|---------------------------------------|
B|-7-7-----------------7-7---------------|
G|-----7-7--5-5--4-4-------7-7--5-5--4-4-|
D|---------------------------------------|
A|---------------------------------------|
E|---------------------------------------|

1-st verse (Clean):
[ Tab from: http://www.guitartabs.cc/tabs/k/kyo/qui_je_suis_tab.html ]
G
Des milliers de bras tendus
Em
Dans le vacarme de ma venue
H                D
Mon dieu qui je suis?
G
J'ai laissé ma solitude
Em
Ma maison est un véhicule
H                              D
Sur mon passage on jure, on crie
Am                             C
Je suis perdu à jamais dans une autre vie
D 
je n'sais plus qui je suis
 
Chorus (Distortion):

G5   D5       H5      E5m 
Je tremble un peu je prie
C5                       A5  
On m'aimait bien dans ma rue
C5                  D5
On me juge dans mon pays

2-nd verse(plays same as 1-st verse):

Tout en haut de l'édifice
Brillant sous les lumière factices
je n'vois plus mon chemin
aujourd'hui j'ai tant d'amis
Où sont ceux qui m'ont vu grandir?
Je les ai vu partir
Je m'suis perdu à jamais dans mon avenir
je n'sais plus qui je suis

Chorus 

Solo:

Rhytm guitar:

E|-----------------------------------|
B|-----------------------------------|
G|--------------777-9--10101010------|
D|-555-7--8888--777-9--10101010------|
A|-555-7--8888--555-7--8-8-8-8-------|
E|-333-5--6666-----------------------|

Solo Guitar:

E|--------------------------|
B|--------------------------|
G|--------------7~--9--10~--|
D|-5~--7--8~----------------|
A|--------------------------|
E|--------------------------|

Rhytm guitar:

E|--------------------------|
B|--------------------------|
G|------------5555--7777----|
D|-5555-4444--5555--7777----|
A|-5555-4444--3333--5555----|
E|-3333-2222----------------|

Solo Guitar:

E|------------------------------|
B|------------7~----10~--9~--7~-|
G|-5~--5--4~--------------------|
D|------------------------------|
A|------------------------------|
E|------------------------------|

Rhytm guitar:

E|-----------------------------------|
B|-----------------------------------|
G|--------------777-9--10101010------|
D|-555-7--8888--777-9--10101010------|
A|-555-7--8888--555-7--8-8-8-8-------|
E|-333-5--6666-----------------------|

Solo Guitar:

E|----------------------------|
B|--------------7~-----\7h8---|
G|-5~--7--8~------------------|
D|----------------------------|
A|----------------------------|
E|----------------------------|

Rhytm guitar:

E|--------------------------|
B|--------------------------|
G|------------5555--7777----|
D|-5555-4444--5555--7777----|
A|-5555-4444--3333--5555----|
E|-3333-2222----------------|

Solo Guitar:

E|------------------------------|
B|------------7~----10~--9~--7~-|
G|-5~--5--4~--------------------|
D|------------------------------|
A|------------------------------|
E|------------------------------|

I'm not sure about the solo part, but I think you can play so.

Chorus (Clean):

G    D        H       Em 
Je tremble un peu je prie
C                        A   
On m'aimait bien dans ma rue
C                   D 
On me juge dans mon pays

Chorus (Distortion)

Outro(plays same as intro).

End on G5.
Comments