Kyo - Fermons Les Yeux Chords & Tabs

 

Fermons Les Yeux Chords & Tabs

Kyo Chords & Tabs

Version: 1 Type: Tab 0 ratings
1 star 2 stars 3 stars 4 stars 5 stars
comments

Fermons Les Yeux Tab

   
This song was pretty hard to tab, but now i've got a sense of achievement. 


1st Guitar (plucking) 1st riff :

e|---------------------------------------------------------|
B|---------------------------------------------------------|
G|-3-3---5-3---3-3---5-3---3-3---5-3---3-3---5-3---2-2-----|
D|-----0-----0-----0-----0-----0-----0-----0-----5-----0---|
A|---------------------------------------------------------|
E|---------------------------------------------------------|

e|---------------------------------------------------------|
B|---------------------------------------------------------|
G|-3-2---3-3---5-3---2-2-2-h4-4-4--s5-5-5-s7-5-------------|
D|-----0-----0-----0---------------------------------------|
A|---------------------------------------------------------|
E|---------------------------------------------------------|

That's the whole first riff that you repeat over again until you reach
the chorus. Right before the chorus, change the ascending part :

e|---------------------------|
B|---------------------------|
G|-2-2-2-h4-4-4-s5-5-5-s7-5--|
D|---------------------------|
A|---------------------------|
E|---------------------------|

Right, now for the chorus. It's really simple :
[ Tab from: http://www.guitartabs.cc/tabs/k/kyo/fermons_les_yeux_tab.html ]
e|-------------------------------------------------|
B|-------------------------------------------------|
G|-5-5-5-5-5-5-4-4-4-4-4-4-5-5-5-5-5-5-5-5-5-5-5-5-|
D|-0-0-0-0-0-0-0-0-0-0-0-0-0-0-0-0-0-0-0-0-0-0-0-0-|
A|-------------------------------------------------|
E|-------------------------------------------------|

Then just repeat the whole first riff again until the chorus and then again...

Now when the bridge comes along, it's also the first riff. When he's finished
singing, and there's a very short moment of music, play this : 

e|--------------------------|
B|--------------------------|
G|-3-s4-s3-3-2-1------------|
D|--------------------------|
A|--------------------------|
E|--------------------------|

After that repeat the chorus. Then the last part, where there's only music,
play this :

e|------------------------|
B|------------------------|
G|-3-3---5-3---3-3---5-3--|
D|-----0-----0-----0------|
A|------------------------|
E|------------------------|

That's it for the first guitar. Now for the second.

2nd Guitar (strumming) :

Here's the strumming : 

|----------- One Bar ----------|

|-down-|-up-|-down-|-up-|-down-| |-down-|-up-|-down-|-up-|-down-|

The change of chords happens each time one bar finishes. 

Now, the chords are Am and C. You have to listen to the song to get the tempo. It's pretty easy.

Right before every chorus, though, you play Am in four bars, before continuing the usual pace. 

Hope that's alright. Any questions? Email me at helios_rietberg@hotmail.com. :) Enjoy.
Comments