Kyla - Till They Take My Heart Away Chords & Tabs

 

Till They Take My Heart Away Chords & Tabs

Kyla Chords & Tabs

Version: 2 Type: Tab 0 ratings
1 star 2 stars 3 stars 4 stars 5 stars
comments

Till They Take My Heart Away Tab

   
title:Till they Take My Heart Away
TABBED BY: ABBE MANUALES
comments,suggestions,corrections,bomb threats,dead threats,violent reactions
E-mail me at (brokn_i@yahoo.com)

intro:
rythm chords: E-E C#m D
(lead)
e-----0------|x2------0------|----------5-----|play twice
B-------4----|  ---------4---|------5----5----|
G---4-----4--|  ----4------4-|--------7----7--|
D--2---------|  -------------|---7------------|
A------------|  --4----------|--5-------------|
E------------|  -------------|----------------|

verse:
rythm chords: E-E C#m D
(lead)
e-----0------|x2------0------|----------------------|play twice
B-------4----|  ---------4---|-----3----------------|
G---4-----4--|  ----4------4-|-4-6---6-4---2--1h2-4-|
D--2---------|  -------------|----------------------|
A------------|  --4----------|----------------------|
E------------|  -------------|----------------------|
   I look into your  eyes so far  away.........
[ Tab from: http://www.guitartabs.cc/tabs/k/kyla/till_they_take_my_heart_away_tab_ver_2.html ]
refrain:
rythm chords: A B G#m C#m
	      A B 
(lead)
e----------0--|---------2--|--------4---|------0---------|
B------2------|------4-----|--------4---|--------4-4--5--|
G--------2----|-------4----|-----4--4---|----4-----4--4--|
D---2---------|---4--------|----6-------|----------------|
A-0-----------|--2---------|---6--------|--4-------------|
E-------------|------------|--4---------|----------------|
 hey now...let me hold you it'll be okay............

e-------0--------|---------2--|
B----0-----0-----|------4-----|
G-----2------2---|-------4----|
D----------------|---4--------|
A--0-------------|--2---------|
E----------------|------------|
                till they take my heart away............
(repeat verse)
(repeat refrain)



chorus:
rythm chords: A B G#m C#m
              A B
(lead)
e-------0-----|-----0------|--------0-----|-------0--------|
B---------4---|-------4----|----------4---|--------4--4--5-|
G----4------4-|----4----4--|-----4------4-|----4------4--4-|
D-------------|------------|--------------|----------------|
A--0----------|--2---------|--------------|--4-------------|
E-------------|------------|--4-----------|----------------|
   believe...  im here to    stay      cause i will love you  
E

e-------0--------|---------2--|
B----0-----0-----|------4-----|
G-----2------2---|-------4----|
D----------------|---4--------|
A--0-------------|--2---------|
E----------------|------------|
                till they take my heart away............




note: kau na ang umintindi nito haaaa ....kau na ang kumapa sa flow ng kanta ok....
Comments