Kweller Ben - Lizzy Chords & Tabs

 

Lizzy Chords & Tabs

Kweller Ben Chords & Tabs

Version: 1 Type: Tab 1 rating
1 star 2 stars 3 stars 4 stars 5 stars
comments

Lizzy Tab

   
#----------------------------------PLEASE NOTE---------------------------------#
#This file is the author's own work and represents their interpretation of the #
#song. You may only use this file for private study, scholarship, or research. #
#------------------------------------------------------------------------------#

TABBED BY:  ANDY MARTIN   col_rhythm@hotmail.com

Artist: Ben Kweller
Album: Freak Out! It's...Ben Kweller
Song Title: Lizzy

Chords:  Em 022000
         C  032010 (there's an occasional hammer w/ middle finger...just listen)
         D  XX0232
         Am 002210
         G  320001
         B7 X21202


Intro:                                           C
e:------------------------------------------------------------------------------
B:------------------3-----0-----3-----0-------------------------0---------------
G:--4p2--0----------4-----0-----4-----0-------------0-----2---------2---0--2----
D:----------0-2-----------------------------------------------------------------
A:----------------------------------------------3---3---3---3---3---3---3---3---
E:--------------0---0---0---0---0---0---0---0-----------------------------------

e:------5-/-/-------------------------------------------------------------------
B:------5-/-/-0-----5-/-/-1-----------------------------------------------------
G:------------0-----5-/-/-2-------------0-----2---------------4p2--0------------
D:-------------------------------------------------0h1----------------0-2-------
A:--0---0---0---0---0---0---0---0---2---2---2---2---------2---------------------
E:-------------------------------------------------------------------------0----


e:-----------------
B:-----------------
G:--4p2--0---------
D:----------0-2----
A:-----------------
E:--------------0--


e:-----------------
B:-----------------
G:--4p2--0---------
D:----------0-2----
A:-----------------
E:--------------0--

*at the end "dienu-ooo-ooo...i love you"  it rotates from Em to C and then finishes on Em before going to the outro

Outro:                                          C
e:---------------------------------------------------------------------
B:---------3-----0-----3-----0-------------------------0---------------
G:---------4-----0-----4-----0-------------0-----2---------2---0--2----
D:---------------------------------------------------------------------
A:-------------------------------------3---3---3---3---3---3---3---3---
E:-----0---0---0---0---0---0---0---0-----------------------------------
[ Tab from: http://www.guitartabs.cc/tabs/k/kweller_ben/lizzy_tab.html ]
e:------5-/-/---------------------------------------------------------------0---
B:------5-/-/-0-----5-/-/-1-------------------------------------------------0---
G:------------0-----5-/-/-2-------------0-----2---------------4p2--0--------0---
D:-------------------------------------------------0h1----------------0-2---2---
A:--0---0---0---0---0---0---0---0---2---2---2---2---------2-----------------2---
E:--------------------------------------------------------------------------0---


*******************************************************************************************************************

*******************************************************************************************************************


LIZZY: INTRO

e-----------------------------------------------------------------
B-----------------------------------------------------------------
G--4p2p0-----------4-----0-----4-----0-------------0-----2-----4--
D---------0h2------2-----2-----2-----2----------------------------
A----------------------------------------------3---3---3---3---3--
E--------------0---0---0---0---0---0---0---0----------------------

e------------------5/0---0------------------------               
B------------------5/0---0-----5/0-----0----------              
G--2---0h2---------------------5/0-----0----------          
D-------------------------------------------------                
A--3---3---3---0---0---0---0---0---0---0---0---0--
E-------------------------------------------------                
                                      
e---------------------------------
B---------------------------------
G------0-----2--------4p2p0-------
D--------------0h1-----------0h2--
A--2---2---2---2---2--------------
E---------------------------------


*********************************************************************************************************************

********************************************************************************************************************


LIZZY

    e|--------------------------------------------------------------------------|
    B|-------------3-----3---------------------5\1--5\1-------------------------|
    G|4p2-0-----------4--4--4---0--2--4-2-0h2--7\2--7\2---0--2------4p2-0-------|
    D|------0h2-------5-----5----------------------------------oh1--------0h2---|
    A|--------------------------------------------------------------------------|
    E|----------0-------------------------------------------------------------0-|



*********************************************************************************************************************

*********************************************************************************************************************
                    

Comments