Kuya Jobert - Langit Na Rin Chords & Tabs

 

Langit Na Rin Chords & Tabs

Kuya Jobert Chords & Tabs

Version: 1 Type: Tab

Langit Na Rin Tab

   
 this is my first tab :) sna mgs2han nio,kapa q lng ung solo .so here it goes..
bale strum lang xa.ipluck nio nalang kng gs2 nio lagay q lng ung tab ng chords ;)
e2 ung chords na gamet sa song

dm7-xx0111
am7-x02120
cm7-x46454
f#m7-242222
f#m-242322
e7sus4-020200
e7-0201000
bm7-x24032

intro..
-----------------------------------------------------|
--2------------0-------------0-----------------------|
--1------------2-------------1-----------------------|
--2------------0-------------0-----------------------|
--0------------2-------------2-----------------------|
--x------------x-------------x-----------------------|

verse...
am7		   f#m7
Sa gabi't araw, ikaw ang laging nais matanaw,

dm7
Ang iyong ganda'y naiiba't katangitangi,

C#m7				   f#m7
Parang anghel lalo na't pag ika'y nakangiti

Chorus

dm7				C#m7
Panalangin ko sana'y dinggin,

  dm7				    C#m7             C#7
kahit sa panaginip lang ay marinig ko na ako'y minamahal mo rin,

 dm7             bm7           e7sus4                    e7
wala na kong mahihiling, pagkat sa piling mo'y parang,

             am7   e7sus4-e7
Langit na rin.

2nd Verse

am7                                 f#m7
Mula nang masilayan ka, hanggang ngayo'y di nagiiba,

dm7
pagtulog ko'y napapangarap na kasama,

C#m7                                        f#m7
Kung maaari lang ayaw ko nang gumising pa,

dm7                             C#m7                                        f#m7
kung ika'y mawawalay, ang mundo ko'y mawawalan ng buhay at kulay,

dm7             bm7            e7sus4-e7
dahil nais ko habang buhay,


am7   e7sus4-e7
kapiling kang tunay . . . ooohhhh


Chorus

         dm7                  C#m7
Panalangin ko sana'y dinggin,

    dm7
kahit sa panaginip lang ay marinig
[ Tab from: http://www.guitartabs.cc/tabs/k/kuya_jobert/langit_na_rin_tab.html ]
C#m7       C#7             f#m7
ko na ako'y mahal mo rin,

       dm7             bm7
wala na kong mahihiling,

e7                                        am7  e7sus4-e7
dahil sa piling mo'y parang,Langit na rin.

e7                                        am7  e7sus4-e7
Dahil sa piling mo'y parang,
Langit na rin.




so eto na po ung solo :)

ung rhythm na kasabay dun sa solo bale gnto xa..
--1---------------------4-----------------------|
--1---------------------5-----------------------|
--1---------------------4-----------------------|
--0---------------------6-----------------------|  repeat x6
--x---------------------4-----------------------|
--x---------------------x-----------------------|

bale eto po ung solo.
--------------------------------------------------------------12-----------|
-------------------------------------------------10-10/12--12b14-12b-10-10-|
--------------------6-7/9-9-6-7-6--------------9---------------------------|
----5/7-7-6-7---6-7----------------9-7-9-9-9-7-----------------------------|
---------------------------------------------------------------------------|
---------------------------------------------------------------------------|



-9--9-10-9-------12-10-9-10-9-9---------------------------------------------|
-10-----------------------------12-10-12b14-10--10--------------10-12-12b14-|
-11--------9/11-------------------------------11--11-9/11--10-11------------|
----------------------------------------------------------------------------|
----------------------------------------------------------------------------|
----------------------------------------------------------------------------|


-------------------------------------------------------------|
-12b14-10--10-10-10-9-10----10-12-12/17----------------------|
-------------------------11----------------------------------|
-------------------------------------------------------------|
-------------------------------------------------------------|
-------------------------------------------------------------|


tpos po ng solo play E7sus4-e7

then repeat cHORUS~ thats it/.sana ngs2hn nio tab q! :) add nio po ako sa facebook 
jazzlynabad@rocketmail.com ..boy pu aku eheh