Kutless - Your Touch Chords & Tabs

 

Your Touch Chords & Tabs

Kutless Chords & Tabs

Version: 7 Type: Tab 0 ratings
1 star 2 stars 3 stars 4 stars 5 stars
comments

Your Touch Tab

Artist:Kutless
Album :Kutless
Song  :Saved

Tabbed By:William Soans
Tuning   :Dropped D (DADGBE)

Intro/Verse
D--5------8-------10-----8----|
A--5------8-------10-----8----|
D--5-7-8--8-10-8--10-10--8-8--|
G--x------x-------12-----10---|
B--x------x-------x------x----|
E--x------x-------x------x----|

Pre-Chorus
D---1---3--5------1---3--10---|
A---1---3--5------1---3--10---|
D---1---3--5-8-7--1---3--10---|
G---x---x--x------x---x--x----|
B---x---x--x------x---x--x----|
E---x---x--x------x---x--x----|
[ Tab from: http://www.guitartabs.cc/tabs/k/kutless/your_touch_tab_ver_7.html ]
Chorus
D--5---8---3---1--5--8--3--1--|
A--5---8---3---1--5--8--3--1--|
D--5---8---3---1--5--8--3--1--|
G--x---x---x---x--x--x--x--x--|
B--x---x---x---x--x--x--x--x--|
E--x---x---x---x--x--x--x--x--|

Interlude Between The 2nd Chorus And The Bridge
D---0-------------------0-----|
A-------5---3---1---3---------|
D-----------------------------|
G-----------------------------|
B-----------------------------|
E-----------------------------|

D---0---0---0-----------------|
A---0---0---0-----------------|
D---0---0---0-----------------|
G---x---x---x-----------------|
B---x---x---x-----------------|
E---x---x---x-----------------|

Bridge
D---0---3---5---0---3--------|
A---0---3---5---0---3--------|
D---0---3---5---0---3--------|
G---x---x---x---x---x--------|
B---x---x---x---x---x--------|
E---x---x---x---x---x--------|

Please Rate This Tab I Really Worked Hard To Get It!!!!!
Thanks.
Comments