Kutless - Your Touch Chords & Tabs

 

Your Touch Chords & Tabs

Kutless Chords & Tabs

Version: 6 Type: Tab 0 ratings
1 star 2 stars 3 stars 4 stars 5 stars
comments

Your Touch Tab

   
YOUR TOUCH
KUTLESS

Tabbed by: Abner Rodriguez/guiabnerpi@hotmail.com
Song: Your Touch
Band: Kutless
Date: 29/12/04 3:20

Hey everybody this is my first tab and  I'm form Poptun, Peten Guatemala
God Bless I Hope this works for you.

Drop-D Tuning


InTrO/Verse 1

e|------------------------------------------------------------------------|
B|------------------------------------------------------------------------|
G|------------------------------------12---------------10-----------------|
D|-----5-8-5-----------8-10-8------10---12----------8----10--------------|X2
A|---5-------5-------8-----------10--------10------8----------------------|
D|-5-----------5---8-----------10------------10-8------------------------|

e|-----------------------------------------------------------------------|
B|-----------------------------------------------------------------------|
G|------------------------------------12---------------10----------------|
D|-----5-8-5-----------8-10-8------10---12----------8-------------------|
A|---5-------5-------8-----------10--------10------8---------------------|
D|-5-----------5---8-----------10------------10-8-----------------------|


PrE-ChOrUs..... Listen de CD

e|-----------------------------------------------------------------------|
B|-----------------------------------------------------------------------|
G|-----------------------------------------------------------------------|
D|---1---3---5------8--7----5----1---3----10--10-10-10------------------|
A|---1---3---5--------------5-----1---3----10--10-10-10------------------|
D|---1---3---5--------------------1---3----10--1010-10------------------|

ChOrUs

e|-----------------------------------------------------------------------|
B|-----------------------------------------------------------------------|
G|-----------------------------------------------------------------------|
D|--5--5--5--------88-8--8----3-3-333-3-----1--1-1----------------------|
A|--5--5--5--------88-8--8-----3-3-333-3-----1--1-1----------------------|
D|--5--5--5--------88-8--8-----3-3-333-3-----1--1-1----------------------|
                                             PM
VeRsE 2

e|-------------------------------------------------------------------|
B|-------------------------------------------------------------------|
G|-------------------------------12------------10--------------------|
D|----5---5---------8---10----10----12-----8-----10----------X2-----|
A|----5------5------8---------10------------8------------------------|
D|----5-------------8---------10------------8------------------------|
[ Tab from: http://www.guitartabs.cc/tabs/k/kutless/your_touch_tab_ver_6.html ]
e|-------------------------------------------------------------------|
B|-------------------------------------------------------------------|
G|-------------------------------12------------10--------------------|
D|----5---5---------8---10----10----12-----8------------------------|
A|----5------5------8---------10------------8------------------------|
D|----5-------------8---------10------------8------------------------|


RePet de PrE-ChOruS and ChOrUs

After Chorus..

Interlude...Intro
e|---------------------------------------------------------------------|
B|---------------------------------------------------------------------|
G|-----------------5---3-----------------------------------------------|
D|----5---8---3-------------5---8---3---------------------------------|
A|----5---8---3--------------5---8---3---------------------------------|
D|----5---8---3--------------5---8---3--------------------------------|

Interlude-Guitar 1

e|----------------------------|
B|----------------------------|
G|----------------------------|  4X
D|---------------------------|
A|-------3-1------------------|
D|---0--------3-5---0---------|

Interlude continuded-Guitar 1     Guitar 2

e|----------------------------|-----------------------|
B|----------------------------|-----------------------|
G|----------------------------|-----------------------|   5X
D|---------------------------|-------0-0-0-0----PM---|
A|-------3-1------------------|-------0-0-0-0---------|
D|---0--------3-5---0---------|------0-0-0-0---------|


e|-----------------------------|
B|-----------------------------|
G|-----------------------------|
D|---------00000--------------|
A|---------00000---------------|
D|---------00000---------------|
This is the part
...I need you I need you I need you...


E|-------------------------------------------------------------------|
B|-------------------------------------------------------------------|
G|-------------------------------------------------------------------|
D|------0-0--3/5--0-5-3---------------------------------------------|
A|------0-0--3/5--0-5-3------------- -------------------------------|
D|------0-0--3/5--0-5-3---------------------------------------------|
... touch.............
ChOrUs

e|--------------------------------------------------------------------|
B|--------------------------------------------------------------------|
G|--------------------------------------------------------------------|
D|--5--5--5--------88-8--8----3-3-333-3-----1--1-1------3X-----------|
A|--5--5--5--------88-8--8-----3-3-333-3-----1--1-1-------------------|
D|--5--5--5--------88-8--8-----3-3-333-3-----1--1-1-------------------|
                                             PM
e|--------------------------------------------------------------------|
B|--------------------------------------------------------------------|
G|--------------------------------------------------------------------|
D|--5--5-55/88-8------3-3-333-3-----1--1-1----------5------5X-------|
A|--5--5-55/88-8-------3-3-333-3-----1--1-1--ending--5---------------|
D|--5--5-55/88-8-------3-3-333-3-----1--1-1----------5---------------|
                                      PM

God Bless you!
Comments