Kutless - Your Touch Chords & Tabs

 

Your Touch Chords & Tabs

Kutless Chords & Tabs

Version: 5 Type: Tab 0 ratings
1 star 2 stars 3 stars 4 stars 5 stars
comments

Your Touch Tab

   
Title: Kutless
Song: Your Touch
Album: Kutless
Tooth and Nail Records

The Intro/verse is a little different than the song, but I personally
like it a little better. Have fun!!

drop-D tuning

Intro/VERSE1
E----------------------------------------------------------------------------
B----------------------------------------------------------------------------
G----------------------------------------------------------------------------
D-------5-8-5----------8-10-8---------10-12-10------------8-10-8-----(3X)----
A-----5-------5------8-------------10----------10-------8--------------------
D---5-----------5--8------------10----------------10--8----------------------

 Pre-chorus--listen to cd for timing
E---------------------------------------------------------------------------
B---------------------------------------------------------------------------
G---------------------------------------------------------------------------
D---1--3--5-------5--------5---------------1--3---10--10-10-10--------------
A---1--3--5-----------5--------5-----------1--3---10--10-10-10--------------
D---1--3--5------------------------5-------1--3---10--10-10-10--------------


CHORUS
E----------------------------------------------------------------------------
B----------------------------------------------------------------------------
G----------------------------------------------------------------------------
D----5---5--5-----888---8---3-3--333--3---1----------------------------------
A----5---5--5-----888---8---3-3--333--3---1--(quickly repeat)----------------
D----5---5--5-----888---8---3-3--333--3---1----------------------------------

verse2

E----------------------------------------------------------------------------
B----------------------------------------------------------------------------
G----------------------------------------------------------------------------
D----5--8-----8---10----10--12-----8---10-----(3x)---------------------------
A----5----5---8------8--10----10---8-----8-----------------------------------
D----5--------8---------10---------8-----------------------------------------

repeat Pre-Chorus

repeat Chorus
[ Tab from: http://www.guitartabs.cc/tabs/k/kutless/your_touch_tab_ver_5.html ]
bridge intro
E----------------------------------------------------------------------------
B----------------------------------------------------------------------------
G----------------------------------------------------------------------------
D-----5---8---10---10------5---8---3-----------------------------------------
A-----5---8---10------10---5---8---3-----------------------------------------
D-----5---8---10-----------5---8---3-----------------------------------------

Bridge--guitar 1                    Guitar2      
E-------------------------------|--------------|
B-------------------------------|--------------|
G-------------------------------|--------------|
D-------------------------------|------0-------|
A------5---3-------------(4x)---|------0-pm----|
D-------------3---5--0----------|------0-------|

guitar1 play bridge 4X then guitar2 palm mute starts and guitar1 repeat
brigde riff (4X)


guitar1                              both guitars
E------------------------------------------------------------------------
B------------------------------------------------------------------------
G------------------------------------------------------------------------
D-------------------------------------0---0--0--0------------------------
A------5---3-------------(4x)---------0---0--0--0-mute-------------------
D-------------3---5--0----------------0---0--0--0------------------------

E------------------------------------------------------------------------
B------------------------------------------------------------------------
G------------------------------------------------------------------------
D-------0-0--3/5--000--5\3-----------------------------------------------
A-------0-0--3/5--000--5\3--repeat a lot---------------------------------
D-------0-0--3/5--000--5\3-----------------------------------------------

repeat about 10 times, listen to the cd

repeat Chorus (7or8x)

CHORUS
E----------------------------------------------------------------------------
B----------------------------------------------------------------------------
G----------------------------------------------------------------------------
D----5---5--5-----888---8---3-3--333--3---1-----------end on----5------------
A----5---5--5-----888---8---3-3--333--3---1---------------------5------------
D----5---5--5-----888---8---3-3--333--3---1---------------------5------------
Comments