Kutless - Your Touch Chords & Tabs

 

Your Touch Chords & Tabs

Kutless Chords & Tabs

Version: 1 Type: Tab 0 ratings
1 star 2 stars 3 stars 4 stars 5 stars
comments

Your Touch Tab

   
Song: Your Touch
Band: Kutless
Tabbed by: Rudy
www.geocities.com/creed989

Ok first I would like to say ALEX CLEWELL is a f*cking moron!! He 
thinks hes a "guitar god" and can't even tab a complete song. Oh and 
if you're wondering who that is, He is the guy who tabbed version 1
of this song...horrible version. Here is one thats alot better! Enjoy
and oh yeah...Alex sucks!! see ya!	

***D tune***
[ Tab from: http://www.guitartabs.cc/tabs/k/kutless/your_touch_tab.html ]
Intro/Verse
------------------------------------------------------------------------------
------------------------------------------------------------------------------
----------------------------------12--------------10--------------------------
------5-8-5------8-10-8--------10----10---------8----8------------------------
----5----------8------------10----------10----8-------------------------------
--5----------8-----------10-----------------8---------------------------------
                                                                              
Bridge
-----------
-----------
-----------
--1--3--5--
--1--3--5--
--1--3--5--
                                                                              
Chorus
------------------------------------------------------------------------------
------------------------------------------------------------------------------
------------------------------------------------------------------------------
-5-5-5--8-8-8--3-3-3--x-x-x--0-0-0h5------------------------------------------
-5-5-5--8-8-8--3-3-3--x-x-x--0-0-0h5------------------------------------------
-5-5-5--8-8-8--3-3-3--x-x-x--0-0-0h5------------------------------------------
                                                                              
2nd Verse
------------------------------------------------------------------------------
------------------------------------------------------------------------------
--7--10--12--12--------10--10-------------------------------------------------
--5--8---10-----10-----8------8-----------------------------------------------
--5--8---10--------10--8--------8---------------------------------------------
--5--8---10------------8------------------------------------------------------
                                                                              
((Bridge))
                                                                              
((Chorus))

Strum each chord once
---------------------
---------------------
---------------------
--5--8--3------------
--5--8--3------------
--5--8--3------------
                                                                              
First
----------------
----------------
----------------
----------------
----3-----------
-0-----5--3--5--
                                                                              
Then

-------------------------
-------------------------
-------------------------
-0000000--------------0--
-0000000--3-----------0--
-0000000-----5--3--5--0--
|--pm--|
                                                                              
Heavy-Fast-Cool part
---------------------
---------------------
---------------------
-00--3--5--00--5--3--
-00--3--5--00--5--3--
-00--3--5--00--5--3--
Comments